  0
SECTION
  2
HEADER
  9
$ACADVER
  1
AC1015
  9
$ACADMAINTVER
 70
    20
  9
$DWGCODEPAGE
  3
ANSI_932
  9
$INSBASE
 10
0.0
 20
0.0
 30
0.0
  9
$EXTMIN
 10
-1800.109854809471
 20
-2702.438272787302
 30
-0.0015258207003583
  9
$EXTMAX
 10
1800.109871663278
 20
2650.163015010163
 30
0.0000000349246037
  9
$LIMMIN
 10
0.0
 20
0.0
  9
$LIMMAX
 10
0.0
 20
0.0
  9
$ORTHOMODE
 70
     0
  9
$REGENMODE
 70
     1
  9
$FILLMODE
 70
     1
  9
$QTEXTMODE
 70
     0
  9
$MIRRTEXT
 70
     1
  9
$LTSCALE
 40
101.6
  9
$ATTMODE
 70
     1
  9
$TEXTSIZE
 40
0.0
  9
$TRACEWID
 40
1.0
  9
$TEXTSTYLE
  7
STANDARD
  9
$CLAYER
  8
DATA
  9
$CELTYPE
  6
ByLayer
  9
$CECOLOR
 62
   256
  9
$CELTSCALE
 40
1.0
  9
$DISPSILH
 70
     0
  9
$DIMSCALE
 40
1.0
  9
$DIMASZ
 40
0.18
  9
$DIMEXO
 40
0.0625
  9
$DIMDLI
 40
0.38
  9
$DIMRND
 40
0.0
  9
$DIMDLE
 40
0.0
  9
$DIMEXE
 40
0.18
  9
$DIMTP
 40
0.0
  9
$DIMTM
 40
0.0
  9
$DIMTXT
 40
0.18
  9
$DIMCEN
 40
0.09
  9
$DIMTSZ
 40
0.0
  9
$DIMTOL
 70
     0
  9
$DIMLIM
 70
     0
  9
$DIMTIH
 70
     1
  9
$DIMTOH
 70
     1
  9
$DIMSE1
 70
     0
  9
$DIMSE2
 70
     0
  9
$DIMTAD
 70
     0
  9
$DIMZIN
 70
     0
  9
$DIMBLK
  1

  9
$DIMASO
 70
     1
  9
$DIMSHO
 70
     1
  9
$DIMPOST
  1

  9
$DIMAPOST
  1

  9
$DIMALT
 70
     0
  9
$DIMALTD
 70
     2
  9
$DIMALTF
 40
25.4
  9
$DIMLFAC
 40
1.0
  9
$DIMTOFL
 70
     0
  9
$DIMTVP
 40
0.0
  9
$DIMTIX
 70
     0
  9
$DIMSOXD
 70
     0
  9
$DIMSAH
 70
     0
  9
$DIMBLK1
  1

  9
$DIMBLK2
  1

  9
$DIMSTYLE
  2
STANDARD
  9
$DIMCLRD
 70
     0
  9
$DIMCLRE
 70
     0
  9
$DIMCLRT
 70
     0
  9
$DIMTFAC
 40
1.0
  9
$DIMGAP
 40
0.09
  9
$DIMJUST
 70
     0
  9
$DIMSD1
 70
     0
  9
$DIMSD2
 70
     0
  9
$DIMTOLJ
 70
     1
  9
$DIMTZIN
 70
     0
  9
$DIMALTZ
 70
     0
  9
$DIMALTTZ
 70
     0
  9
$DIMUPT
 70
     0
  9
$DIMDEC
 70
     4
  9
$DIMTDEC
 70
     4
  9
$DIMALTU
 70
     2
  9
$DIMALTTD
 70
     2
  9
$DIMTXSTY
  7
STANDARD
  9
$DIMAUNIT
 70
     0
  9
$DIMADEC
 70
     0
  9
$DIMALTRND
 40
0.0
  9
$DIMAZIN
 70
     0
  9
$DIMDSEP
 70
    46
  9
$DIMATFIT
 70
     3
  9
$DIMFRAC
 70
     0
  9
$DIMLDRBLK
  1

  9
$DIMLUNIT
 70
     2
  9
$DIMLWD
 70
    -2
  9
$DIMLWE
 70
    -2
  9
$DIMTMOVE
 70
     0
  9
$LUNITS
 70
     2
  9
$LUPREC
 70
     4
  9
$SKETCHINC
 40
0.1
  9
$FILLETRAD
 40
0.0
  9
$AUNITS
 70
     0
  9
$AUPREC
 70
     0
  9
$MENU
  1
acad
  9
$ELEVATION
 40
0.0
  9
$PELEVATION
 40
0.0
  9
$THICKNESS
 40
0.0
  9
$LIMCHECK
 70
     0
  9
$CHAMFERA
 40
0.0
  9
$CHAMFERB
 40
0.0
  9
$CHAMFERC
 40
0.0
  9
$CHAMFERD
 40
0.0
  9
$SKPOLY
 70
     0
  9
$TDCREATE
 40
2457899.660347222
  9
$TDUCREATE
 40
2457899.285347223
  9
$TDUPDATE
 40
2457899.660740741
  9
$TDUUPDATE
 40
2457899.285740741
  9
$TDINDWG
 40
0.0003240741
  9
$TDUSRTIMER
 40
0.0003240741
  9
$USRTIMER
 70
     1
  9
$ANGBASE
 50
0.0
  9
$ANGDIR
 70
     0
  9
$PDMODE
 70
     1
  9
$PDSIZE
 40
-2.0
  9
$PLINEWID
 40
0.0
  9
$SPLFRAME
 70
     0
  9
$SPLINETYPE
 70
     6
  9
$SPLINESEGS
 70
     8
  9
$HANDSEED
  5
484
  9
$SURFTAB1
 70
     6
  9
$SURFTAB2
 70
     6
  9
$SURFTYPE
 70
     6
  9
$SURFU
 70
     6
  9
$SURFV
 70
     6
  9
$UCSBASE
  2

  9
$UCSNAME
  2

  9
$UCSORG
 10
0.0
 20
0.0
 30
0.0
  9
$UCSXDIR
 10
1.0
 20
0.0
 30
0.0
  9
$UCSYDIR
 10
0.0
 20
1.0
 30
0.0
  9
$UCSORTHOREF
  2

  9
$UCSORTHOVIEW
 70
     0
  9
$UCSORGTOP
 10
0.0
 20
0.0
 30
0.0
  9
$UCSORGBOTTOM
 10
0.0
 20
0.0
 30
0.0
  9
$UCSORGLEFT
 10
0.0
 20
0.0
 30
0.0
  9
$UCSORGRIGHT
 10
0.0
 20
0.0
 30
0.0
  9
$UCSORGFRONT
 10
0.0
 20
0.0
 30
0.0
  9
$UCSORGBACK
 10
0.0
 20
0.0
 30
0.0
  9
$PUCSBASE
  2

  9
$PUCSNAME
  2

  9
$PUCSORG
 10
0.0
 20
0.0
 30
0.0
  9
$PUCSXDIR
 10
1.0
 20
0.0
 30
0.0
  9
$PUCSYDIR
 10
0.0
 20
1.0
 30
0.0
  9
$PUCSORTHOREF
  2

  9
$PUCSORTHOVIEW
 70
     0
  9
$PUCSORGTOP
 10
0.0
 20
0.0
 30
0.0
  9
$PUCSORGBOTTOM
 10
0.0
 20
0.0
 30
0.0
  9
$PUCSORGLEFT
 10
0.0
 20
0.0
 30
0.0
  9
$PUCSORGRIGHT
 10
0.0
 20
0.0
 30
0.0
  9
$PUCSORGFRONT
 10
0.0
 20
0.0
 30
0.0
  9
$PUCSORGBACK
 10
0.0
 20
0.0
 30
0.0
  9
$USERI1
 70
     0
  9
$USERI2
 70
     0
  9
$USERI3
 70
     0
  9
$USERI4
 70
     0
  9
$USERI5
 70
     0
  9
$USERR1
 40
0.0
  9
$USERR2
 40
0.0
  9
$USERR3
 40
0.0
  9
$USERR4
 40
0.0
  9
$USERR5
 40
0.0
  9
$WORLDVIEW
 70
     1
  9
$SHADEDGE
 70
     3
  9
$SHADEDIF
 70
    70
  9
$TILEMODE
 70
     1
  9
$MAXACTVP
 70
    64
  9
$PINSBASE
 10
0.0
 20
0.0
 30
0.0
  9
$PLIMCHECK
 70
     0
  9
$PEXTMIN
 10
1.000000000000000E+20
 20
1.000000000000000E+20
 30
1.000000000000000E+20
  9
$PEXTMAX
 10
-1.000000000000000E+20
 20
-1.000000000000000E+20
 30
-1.000000000000000E+20
  9
$PLIMMIN
 10
0.0
 20
0.0
  9
$PLIMMAX
 10
12.0
 20
9.0
  9
$UNITMODE
 70
     0
  9
$VISRETAIN
 70
     0
  9
$PLINEGEN
 70
     1
  9
$PSLTSCALE
 70
     0
  9
$TREEDEPTH
 70
  3020
  9
$CMLSTYLE
  2
Standard
  9
$CMLJUST
 70
     0
  9
$CMLSCALE
 40
1.0
  9
$PROXYGRAPHICS
 70
     1
  9
$MEASUREMENT
 70
     0
  9
$CELWEIGHT
370
    -1
  9
$ENDCAPS
280
     0
  9
$JOINSTYLE
280
     0
  9
$LWDISPLAY
290
     0
  9
$INSUNITS
 70
     0
  9
$HYPERLINKBASE
  1

  9
$STYLESHEET
  1

  9
$XEDIT
290
     1
  9
$CEPSNTYPE
380
     0
  9
$PSTYLEMODE
290
     1
  9
$FINGERPRINTGUID
  2
{C056C5E9-41B0-E743-951B-16820D29508A}
  9
$VERSIONGUID
  2
{A3B09157-6A69-C74C-85CE-2934B355D1CC}
  9
$EXTNAMES
290
     1
  9
$PSVPSCALE
 40
0.0
  9
$OLESTARTUP
290
     0
  0
ENDSEC
  0
SECTION
  2
CLASSES
  0
CLASS
  1
ACDBDICTIONARYWDFLT
  2
AcDbDictionaryWithDefault
  3
ObjectDBX Classes
 90
        0
280
     0
281
     0
  0
CLASS
  1
MATERIAL
  2
AcDbMaterial
  3
ObjectDBX Classes
 90
     1153
280
     0
281
     0
  0
CLASS
  1
VISUALSTYLE
  2
AcDbVisualStyle
  3
ObjectDBX Classes
 90
     4095
280
     0
281
     0
  0
CLASS
  1
SCALE
  2
AcDbScale
  3
ObjectDBX Classes
 90
     1153
280
     0
281
     0
  0
CLASS
  1
TABLESTYLE
  2
AcDbTableStyle
  3
ObjectDBX Classes
 90
     4095
280
     0
281
     0
  0
CLASS
  1
MLEADERSTYLE
  2
AcDbMLeaderStyle
  3
ACDB_MLEADERSTYLE_CLASS
 90
     4095
280
     0
281
     0
  0
CLASS
  1
ACDBSECTIONVIEWSTYLE
  2
AcDbSectionViewStyle
  3
ObjectDBX Classes
 90
     1025
280
     0
281
     0
  0
CLASS
  1
ACDBDETAILVIEWSTYLE
  2
AcDbDetailViewStyle
  3
ObjectDBX Classes
 90
     1025
280
     0
281
     0
  0
CLASS
  1
DICTIONARYVAR
  2
AcDbDictionaryVar
  3
ObjectDBX Classes
 90
        0
280
     0
281
     0
  0
CLASS
  1
CELLSTYLEMAP
  2
AcDbCellStyleMap
  3
ObjectDBX Classes
 90
     1152
280
     0
281
     0
  0
CLASS
  1
ACDBPLACEHOLDER
  2
AcDbPlaceHolder
  3
ObjectDBX Classes
 90
        0
280
     0
281
     0
  0
CLASS
  1
LAYOUT
  2
AcDbLayout
  3
ObjectDBX Classes
 90
        0
280
     0
281
     0
  0
ENDSEC
  0
SECTION
  2
TABLES
  0
TABLE
  2
VPORT
  5
3AC
330
0
100
AcDbSymbolTable
 70
     1
  0
VPORT
  5
418
330
3AC
100
AcDbSymbolTableRecord
100
AcDbViewportTableRecord
  2
*ACTIVE
 70
     0
 10
0.0
 20
0.0
 11
1.0
 21
1.0
 12
0.0000084269049694
 22
-26.13762888856945
 13
0.0
 23
0.0
 14
1.0
 24
1.0
 15
0.0
 25
0.0
 16
0.0
 26
0.0
 36
1.0
 17
0.0
 27
0.0
 37
0.0
 40
5381.770777104263
 41
2.309090909090909
 42
50.0
 43
0.0
 44
0.0
 50
0.0
 51
0.0
 71
     0
 72
  2000
 73
     1
 74
     1
 75
     0
 76
     0
 77
     0
 78
     0
281
     0
 65
     1
110
0.0
120
0.0
130
0.0
111
1.0
121
0.0
131
0.0
112
0.0
122
1.0
132
0.0
 79
     0
146
0.0
1001
ACAD_NAV_VCDISPLAY
1070
     3
  0
ENDTAB
  0
TABLE
  2
LTYPE
  5
3A9
330
0
100
AcDbSymbolTable
 70
    13
  0
LTYPE
  5
3FE
330
3A9
100
AcDbSymbolTableRecord
100
AcDbLinetypeTableRecord
  2
ByBlock
 70
     0
  3

 72
    65
 73
     0
 40
0.0
  0
LTYPE
  5
3FF
330
3A9
100
AcDbSymbolTableRecord
100
AcDbLinetypeTableRecord
  2
ByLayer
 70
     0
  3

 72
    65
 73
     0
 40
0.0
  0
LTYPE
  5
400
330
3A9
100
AcDbSymbolTableRecord
100
AcDbLinetypeTableRecord
  2
CONTINUOUS
 70
     0
  3
Solid line
 72
    65
 73
     0
 40
0.0
  0
ENDTAB
  0
TABLE
  2
LAYER
  5
3A6
330
0
100
AcDbSymbolTable
 70
     5
  0
LAYER
  5
3F8
102
{ACAD_XDICTIONARY
360
42E
102
}
330
3A6
100
AcDbSymbolTableRecord
100
AcDbLayerTableRecord
  2
0
 70
     0
 62
     7
  6
CONTINUOUS
370
    -3
390
3B3
  0
LAYER
  5
417
102
{ACAD_XDICTIONARY
360
430
102
}
330
3A6
100
AcDbSymbolTableRecord
100
AcDbLayerTableRecord
  2
DATA
 70
     0
 62
     7
  6
CONTINUOUS
370
    -3
390
3B3
  0
LAYER
  5
425
102
{ACAD_XDICTIONARY
360
432
102
}
330
3A6
100
AcDbSymbolTableRecord
100
AcDbLayerTableRecord
  2
HIBINO-BASE
 70
     0
 62
     7
  6
CONTINUOUS
370
    -3
390
3B3
  0
LAYER
  5
426
102
{ACAD_XDICTIONARY
360
434
102
}
330
3A6
100
AcDbSymbolTableRecord
100
AcDbLayerTableRecord
  2
SPEC
 70
     0
 62
     7
  6
CONTINUOUS
370
    -3
390
3B3
  0
LAYER
  5
427
102
{ACAD_XDICTIONARY
360
436
102
}
330
3A6
100
AcDbSymbolTableRecord
100
AcDbLayerTableRecord
  2
DIMNSIONS
 70
     0
 62
     7
  6
CONTINUOUS
370
    -3
390
3B3
  0
ENDTAB
  0
TABLE
  2
STYLE
  5
3A7
330
0
100
AcDbSymbolTable
 70
     3
  0
STYLE
  5
3F9
330
3A7
100
AcDbSymbolTableRecord
100
AcDbTextStyleTableRecord
  2
STANDARD
 70
     0
 40
0.0
 41
1.0
 50
0.0
 71
     0
 42
0.0
  3
txt
  4
BIGFONT.SHX
  0
ENDTAB
  0
TABLE
  2
VIEW
  5
3AA
330
0
100
AcDbSymbolTable
 70
     0
  0
ENDTAB
  0
TABLE
  2
UCS
  5
3AB
330
0
100
AcDbSymbolTable
 70
     0
  0
ENDTAB
  0
TABLE
  2
APPID
  5
3AD
330
0
100
AcDbSymbolTable
 70
     4
  0
APPID
  5
3FA
330
3AD
100
AcDbSymbolTableRecord
100
AcDbRegAppTableRecord
  2
ACAD
 70
     0
  0
APPID
  5
401
330
3AD
100
AcDbSymbolTableRecord
100
AcDbRegAppTableRecord
  2
AcadAnnotative
 70
     0
  0
APPID
  5
442
330
3AD
100
AcDbSymbolTableRecord
100
AcDbRegAppTableRecord
  2
ACAD_NAV_VCDISPLAY
 70
     0
  0
APPID
  5
47B
330
3AD
100
AcDbSymbolTableRecord
100
AcDbRegAppTableRecord
  2
ACAD_MLEADERVER
 70
     0
  0
ENDTAB
  0
TABLE
  2
DIMSTYLE
  5
3AE
330
0
100
AcDbSymbolTable
 70
     2
100
AcDbDimStyleTable
 71
     0
  0
DIMSTYLE
105
3FB
330
3AE
100
AcDbSymbolTableRecord
100
AcDbDimStyleTableRecord
  2
STANDARD
 70
     0
279
     2
340
3F9
  0
ENDTAB
  0
TABLE
  2
BLOCK_RECORD
  5
3A5
330
0
100
AcDbSymbolTable
 70
     0
  0
BLOCK_RECORD
  5
413
330
3A5
100
AcDbSymbolTableRecord
100
AcDbBlockTableRecord
  2
*Model_Space
340
416
  0
BLOCK_RECORD
  5
40F
330
3A5
100
AcDbSymbolTableRecord
100
AcDbBlockTableRecord
  2
*Paper_Space
340
412
  0
ENDTAB
  0
ENDSEC
  0
SECTION
  2
BLOCKS
  0
BLOCK
  5
414
330
413
100
AcDbEntity
  8
0
100
AcDbBlockBegin
  2
*Model_Space
 70
     0
 10
0.0
 20
0.0
 30
0.0
  3
*Model_Space
  1

  0
ENDBLK
  5
415
330
413
100
AcDbEntity
  8
0
100
AcDbBlockEnd
  0
BLOCK
  5
410
330
40F
100
AcDbEntity
 67
     1
  8
0
100
AcDbBlockBegin
  2
*Paper_Space
 70
     0
 10
0.0
 20
0.0
 30
0.0
  3
*Paper_Space
  1

  0
ENDBLK
  5
411
330
40F
100
AcDbEntity
 67
     1
  8
0
100
AcDbBlockEnd
  0
ENDSEC
  0
SECTION
  2
ENTITIES
  0
LINE
  5
2E
330
413
100
AcDbEntity
  8
HIBINO-BASE
  6
Continuous
 62
     7
100
AcDbLine
 10
-1799.999999909999
 20
2649.999999870001
 30
0.0
 11
1800.0
 21
2649.999999870001
 31
0.0
  0
LINE
  5
2F
330
413
100
AcDbEntity
  8
HIBINO-BASE
  6
Continuous
 62
     7
100
AcDbLine
 10
1800.0
 20
-2550.0
 30
0.0
 11
-1799.999999909999
 21
-2550.0
 31
0.0
  0
LINE
  5
30
330
413
100
AcDbEntity
  8
HIBINO-BASE
  6
Continuous
 62
     7
100
AcDbLine
 10
-1799.999999909999
 20
-2550.0
 30
0.0
 11
-1799.999999909999
 21
2649.999999870001
 31
0.0
  0
LINE
  5
31
330
413
100
AcDbEntity
  8
HIBINO-BASE
  6
Continuous
 62
     7
100
AcDbLine
 10
1800.0
 20
2649.999999870001
 30
0.0
 11
1800.0
 21
-2550.0
 31
0.0
  0
LINE
  5
32
330
413
100
AcDbEntity
  8
HIBINO-BASE
  6
Continuous
 62
     7
100
AcDbLine
 10
0.0000000450005757
 20
-2100.00000001125
 30
0.0
 11
1800.0
 21
-2100.00000001125
 31
0.0
  0
LINE
  5
33
330
413
100
AcDbEntity
  8
HIBINO-BASE
  6
Continuous
 62
     7
100
AcDbLine
 10
0.0000000450005757
 20
-2550.0
 30
0.0
 11
0.0000000450005757
 21
-2100.00000001125
 31
0.0
  0
TEXT
  5
34
330
413
100
AcDbEntity
  8
HIBINO-BASE
 62
     7
100
AcDbText
 10
18.00000004455068
 20
-2150.173866676662
 30
0.0
 40
32.57682291585224
  1
NOTE
 41
0.7
 11
18.00000004455069
 21
-2117.59704376081
 31
0.0
100
AcDbText
 73
     3
  0
LINE
  5
35
330
413
100
AcDbEntity
  8
HIBINO-BASE
  6
Continuous
 62
     7
100
AcDbLine
 10
700.0000000275009
 20
-2550.0
 30
0.0
 11
700.0000000275009
 21
-2100.00000001125
 31
0.0
  0
TEXT
  5
36
330
413
100
AcDbEntity
  8
HIBINO-BASE
 62
     7
100
AcDbText
 10
718.0000000270503
 20
-2150.173866676662
 30
0.0
 40
32.57682291585224
  1
TITLE
 41
0.7
 11
718.0000000270503
 21
-2117.59704376081
 31
0.0
100
AcDbText
 73
     3
  0
LINE
  5
37
330
413
100
AcDbEntity
  8
HIBINO-BASE
  6
Continuous
 62
     7
100
AcDbLine
 10
0.0000000450005757
 20
-2350.000000005
 30
0.0
 11
1800.0
 21
-2350.000000005
 31
0.0
  0
TEXT
  5
38
330
413
100
AcDbEntity
  8
HIBINO-BASE
 62
     7
100
AcDbText
 10
968.0000000208002
 20
-2399.04746667044
 30
0.0
 40
32.57682291585224
  1
DRAWN
 41
0.7
 11
968.0000000208002
 21
-2366.470643754588
 31
0.0
100
AcDbText
 73
     3
  0
TEXT
  5
39
330
413
100
AcDbEntity
  8
HIBINO-BASE
 62
     7
100
AcDbText
 10
468.0000000333004
 20
-2399.04746667044
 30
0.0
 40
32.57682291585224
  1
DATE
 41
0.7
 11
468.0000000333004
 21
-2366.470643754588
 31
0.0
100
AcDbText
 73
     3
  0
TEXT
  5
3A
330
413
100
AcDbEntity
  8
HIBINO-BASE
 62
     7
100
AcDbText
 10
268.0000000383004
 20
-2399.04746667044
 30
0.0
 40
32.57682291585224
  1
SCALE
 41
0.7
 11
268.0000000383004
 21
-2366.470643754588
 31
0.0
100
AcDbText
 73
     3
  0
TEXT
  5
3B
330
413
100
AcDbEntity
  8
HIBINO-BASE
 62
     7
100
AcDbText
 10
718.0000000270503
 20
-2399.04746667044
 30
0.0
 40
32.57682291585224
  1
DESIGN
 41
0.7
 11
718.0000000270503
 21
-2366.470643754588
 31
0.0
100
AcDbText
 73
     3
  0
TEXT
  5
3C
330
413
100
AcDbEntity
  8
HIBINO-BASE
 62
     7
100
AcDbText
 10
1468.0000000083
 20
-2399.04746667044
 30
0.0
 40
32.57682291585224
  1
DRAWING NO.
 41
0.7
 11
1468.0000000083
 21
-2366.470643754588
 31
0.0
100
AcDbText
 73
     3
  0
TEXT
  5
3D
330
413
100
AcDbEntity
  8
HIBINO-BASE
 62
     7
100
AcDbText
 10
1218.00000001455
 20
-2399.04746667044
 30
0.0
 40
32.57682291585224
  1
CHECK
 41
0.7
 11
1218.00000001455
 21
-2366.470643754588
 31
0.0
100
AcDbText
 73
     3
  0
LINE
  5
3E
330
413
100
AcDbEntity
  8
HIBINO-BASE
  6
Continuous
 62
     7
100
AcDbLine
 10
287.5000000378131
 20
-2525.000000000625
 30
0.0
 11
362.5000000359384
 21
-2450.0000000025
 31
0.0
  0
TEXT
  5
3F
330
413
100
AcDbEntity
  8
HIBINO-BASE
 62
     7
100
AcDbText
 10
275.0000000381256
 20
-2472.178866668612
 30
0.0
 40
32.57682291585224
  1
1
 41
0.7
 11
275.0000000381256
 21
-2439.60204375276
 31
0.0
100
AcDbText
 73
     3
  0
LINE
  5
40
330
413
100
AcDbEntity
  8
HIBINO-BASE
  6
Continuous
 62
     7
100
AcDbLine
 10
250.0000000387506
 20
-2550.0
 30
0.0
 11
250.0000000387506
 21
-2350.000000005
 31
0.0
  0
LINE
  5
41
330
413
100
AcDbEntity
  8
HIBINO-BASE
  6
Continuous
 62
     7
100
AcDbLine
 10
450.0000000337503
 20
-2550.0
 30
0.0
 11
450.0000000337503
 21
-2350.000000005
 31
0.0
  0
LINE
  5
42
330
413
100
AcDbEntity
  8
HIBINO-BASE
  6
Continuous
 62
     7
100
AcDbLine
 10
950.0000000212498
 20
-2350.000000005
 30
0.0
 11
950.0000000212498
 21
-2550.0
 31
0.0
  0
LINE
  5
43
330
413
100
AcDbEntity
  8
HIBINO-BASE
  6
Continuous
 62
     7
100
AcDbLine
 10
1450.00000000875
 20
-2350.000000005
 30
0.0
 11
1450.00000000875
 21
-2550.0
 31
0.0
  0
LINE
  5
44
330
413
100
AcDbEntity
  8
HIBINO-BASE
  6
Continuous
 62
     7
100
AcDbLine
 10
1200.000000015
 20
-2550.0
 30
0.0
 11
1200.000000015
 21
-2350.000000005
 31
0.0
  0
TEXT
  5
45
330
413
100
AcDbEntity
  8
HIBINO-BASE
 62
     7
100
AcDbText
 10
467.1308000333225
 20
-2492.727066668097
 30
0.0
 40
32.57682291585224
  1
'17.05.
 41
0.7
 11
467.1308000333225
 21
-2460.150243752245
 31
0.0
100
AcDbText
 73
     3
  0
TEXT
  5
46
330
413
100
AcDbEntity
  8
HIBINO-BASE
 62
     7
100
AcDbText
 10
350.0000000362505
 20
-2509.678866667675
 30
0.0
 40
32.57682291585224
  1
20
 41
0.7
 11
350.0000000362505
 21
-2477.102043751822
 31
0.0
100
AcDbText
 73
     3
  0
TEXT
  5
47
330
413
100
AcDbEntity
  8
HIBINO-BASE
 62
     7
100
AcDbText
 10
980.1162002411901
 20
-2492.727066668097
 30
0.0
 40
32.57682291585224
  1
N.Sasaki
 41
0.7
 11
980.1162002411901
 21
-2460.150243752245
 31
0.0
100
AcDbText
 73
     3
  0
TEXT
  5
48
330
413
100
AcDbEntity
  8
HIBINO-BASE
 62
     7
100
AcDbText
 10
77.66666670972599
 20
-2510.480000000988
 30
0.0
 40
65.15364583170448
  1
A4
 41
0.7
 11
77.66666670972599
 21
-2445.326354169283
 31
0.0
100
AcDbText
 73
     3
  0
TEXT
  5
49
330
413
100
AcDbEntity
  8
HIBINO-BASE
 62
     7
100
AcDbText
 10
19.16666671118797
 20
-2402.389100003689
 30
0.0
 40
32.57682291585224
  1
PAPER SIZE
 41
0.7
 11
19.16666671118797
 21
-2369.812277087837
 31
0.0
100
AcDbText
 73
     3
  0
TEXT
  5
4A
330
413
100
AcDbEntity
  8
HIBINO-BASE
 62
     7
100
AcDbText
 10
-1656.319999913591
 20
-2678.173555996795
 30
0.0
 40
72.00088359194997
  1
Hibino Corporation
 41
0.7
 11
-1656.319999913591
 21
-2606.172672404845
 31
0.0
100
AcDbText
 73
     3
  0
TEXT
  5
4B
330
413
100
AcDbEntity
  8
HIBINO-BASE
 62
     7
100
AcDbText
 10
1001.367800019966
 20
-2678.173555996795
 30
0.0
 40
72.00088359194997
  1
ヒビノ株式会社
 41
0.7
 11
1001.367800019966
 21
-2606.172672404845
 31
0.0
100
AcDbText
 73
     3
  0
LINE
  5
4C
330
413
100
AcDbEntity
  8
SPEC
  6
Continuous
 62
     7
100
AcDbLine
 10
-1649.999999909999
 20
2449.99999987
 30
0.0
 11
1300.000000090001
 21
2449.99999987
 31
0.0
  0
LINE
  5
4D
330
413
100
AcDbEntity
  8
SPEC
  6
Continuous
 62
     7
100
AcDbLine
 10
-1649.999999909999
 20
2374.99999987
 30
0.0
 11
1300.000000090001
 21
2374.99999987
 31
0.0
  0
LINE
  5
4E
330
413
100
AcDbEntity
  8
SPEC
  6
Continuous
 62
     7
100
AcDbLine
 10
-1649.999999909999
 20
2449.99999987
 30
0.0
 11
-1649.999999909999
 21
1699.99999987
 31
0.0
  0
TEXT
  5
4F
330
413
100
AcDbEntity
  8
SPEC
 62
     7
100
AcDbText
 10
-1624.999999909999
 20
2477.86539987
 30
0.0
 40
48.86523437500001
  1
仕様
 41
0.7
 11
-1624.999999909999
 21
2526.730634244999
 31
0.0
100
AcDbText
 73
     3
  0
LINE
  5
50
330
413
100
AcDbEntity
  8
SPEC
  6
Continuous
 62
     7
100
AcDbLine
 10
-999.9999999099987
 20
2449.99999987
 30
0.0
 11
-999.9999999099987
 21
1699.99999987
 31
0.0
  0
LINE
  5
51
330
413
100
AcDbEntity
  8
SPEC
  6
Continuous
 62
     7
100
AcDbLine
 10
1300.000000090001
 20
2449.99999987
 30
0.0
 11
1300.000000090001
 21
1699.99999987
 31
0.0
  0
TEXT
  5
52
330
413
100
AcDbEntity
  8
SPEC
 62
     7
100
AcDbText
 10
-1631.999999909999
 20
1790.758355425555
 30
0.0
 40
38.00629340277778
  1
寸法(W×H×D)
 41
0.7
 11
-1631.999999909999
 21
1828.764648828333
 31
0.0
100
AcDbText
 73
     3
  0
TEXT
  5
53
330
413
100
AcDbEntity
  8
SPEC
 62
     7
100
AcDbText
 10
-1631.999999909999
 20
1715.758355425555
 30
0.0
 40
38.00629340277778
  1
質量
 41
0.7
 11
-1631.999999909999
 21
1753.764648828332
 31
0.0
100
AcDbText
 73
     3
  0
LINE
  5
54
330
413
100
AcDbEntity
  8
SPEC
  6
Continuous
 62
     7
100
AcDbLine
 10
-1649.999999909999
 20
2299.99999987
 30
0.0
 11
1300.000000090001
 21
2299.99999987
 31
0.0
  0
LINE
  5
55
330
413
100
AcDbEntity
  8
SPEC
  6
Continuous
 62
     7
100
AcDbLine
 10
-1649.999999909999
 20
2224.99999987
 30
0.0
 11
1300.000000090001
 21
2224.99999987
 31
0.0
  0
LINE
  5
56
330
413
100
AcDbEntity
  8
SPEC
  6
Continuous
 62
     7
100
AcDbLine
 10
-1649.999999909999
 20
2149.99999987
 30
0.0
 11
1300.000000090001
 21
2149.99999987
 31
0.0
  0
LINE
  5
57
330
413
100
AcDbEntity
  8
SPEC
  6
Continuous
 62
     7
100
AcDbLine
 10
-1649.999999909999
 20
2074.99999987
 30
0.0
 11
1300.000000090001
 21
2074.99999987
 31
0.0
  0
LINE
  5
58
330
413
100
AcDbEntity
  8
SPEC
  6
Continuous
 62
     7
100
AcDbLine
 10
-1649.999999909999
 20
1999.99999987
 30
0.0
 11
1300.000000090001
 21
1999.99999987
 31
0.0
  0
LINE
  5
59
330
413
100
AcDbEntity
  8
SPEC
  6
Continuous
 62
     7
100
AcDbLine
 10
-1649.999999909999
 20
1924.99999987
 30
0.0
 11
1300.000000090001
 21
1924.99999987
 31
0.0
  0
LINE
  5
5A
330
413
100
AcDbEntity
  8
SPEC
  6
Continuous
 62
     7
100
AcDbLine
 10
-1649.999999909999
 20
1849.99999987
 30
0.0
 11
1300.000000090001
 21
1849.99999987
 31
0.0
  0
LINE
  5
5B
330
413
100
AcDbEntity
  8
SPEC
  6
Continuous
 62
     7
100
AcDbLine
 10
-1649.999999909999
 20
1774.99999987
 30
0.0
 11
1300.000000090001
 21
1774.99999987
 31
0.0
  0
LINE
  5
5C
330
413
100
AcDbEntity
  8
SPEC
  6
Continuous
 62
     7
100
AcDbLine
 10
-1649.999999909999
 20
1699.99999987
 30
0.0
 11
1300.000000090001
 21
1699.99999987
 31
0.0
  0
TEXT
  5
5D
330
413
100
AcDbEntity
  8
SPEC
 62
     7
100
AcDbText
 10
-981.9999999099987
 20
1715.758355425555
 30
0.0
 40
38.00629340277778
  1
64kg
 41
0.7
 11
-981.9999999099987
 21
1753.764648828332
 31
0.0
100
AcDbText
 73
     3
  0
TEXT
  5
5E
330
413
100
AcDbEntity
  8
SPEC
 62
     7
100
AcDbText
 10
-981.9999999099987
 20
1790.758355425555
 30
0.0
 40
38.00629340277778
  1
1,202×570×682mm(除突起部)
 41
0.7
 11
-981.9999999099987
 21
1828.764648828333
 31
0.0
100
AcDbText
 73
     3
  0
TEXT
  5
5F
330
413
100
AcDbEntity
  8
SPEC
 62
     7
100
AcDbText
 10
-1631.999999909999
 20
2390.758355425555
 30
0.0
 40
38.00629340277778
  1
周波数レンジ(-10dB)
 41
0.7
 11
-1631.999999909999
 21
2428.764648828333
 31
0.0
100
AcDbText
 73
     3
  0
TEXT
  5
60
330
413
100
AcDbEntity
  8
SPEC
 62
     7
100
AcDbText
 10
-1631.999999909999
 20
2315.758355425555
 30
0.0
 40
38.00629340277778
  1
最大音圧レベル
 41
0.7
 11
-1631.999999909999
 21
2353.764648828333
 31
0.0
100
AcDbText
 73
     3
  0
TEXT
  5
61
330
413
100
AcDbEntity
  8
SPEC
 62
     7
100
AcDbText
 10
-1631.999999909999
 20
2240.758355425555
 30
0.0
 40
38.00629340277778
  1
感度(1W、1m)
 41
0.7
 11
-1631.999999909999
 21
2278.764648828333
 31
0.0
100
AcDbText
 73
     3
  0
TEXT
  5
62
330
413
100
AcDbEntity
  8
SPEC
 62
     7
100
AcDbText
 10
-1631.999999909999
 20
2165.758355425555
 30
0.0
 40
38.00629340277778
  1
公称インピーダンス
 41
0.7
 11
-1631.999999909999
 21
2203.764648828333
 31
0.0
100
AcDbText
 73
     3
  0
TEXT
  5
63
330
413
100
AcDbEntity
  8
SPEC
 62
     7
100
AcDbText
 10
-1631.999999909999
 20
2090.758355425555
 30
0.0
 40
38.00629340277778
  1
許容入力
 41
0.7
 11
-1631.999999909999
 21
2128.764648828333
 31
0.0
100
AcDbText
 73
     3
  0
TEXT
  5
64
330
413
100
AcDbEntity
  8
SPEC
 62
     7
100
AcDbText
 10
-1631.999999909999
 20
2015.758355425555
 30
0.0
 40
38.00629340277778
  1
ドライバー構成
 41
0.7
 11
-1631.999999909999
 21
2053.764648828332
 31
0.0
100
AcDbText
 73
     3
  0
TEXT
  5
65
330
413
100
AcDbEntity
  8
SPEC
 62
     7
100
AcDbText
 10
-1631.999999909999
 20
1940.758355425555
 30
0.0
 40
38.00629340277778
  1
入力端子
 41
0.7
 11
-1631.999999909999
 21
1978.764648828333
 31
0.0
100
AcDbText
 73
     3
  0
TEXT
  5
66
330
413
100
AcDbEntity
  8
SPEC
 62
     7
100
AcDbText
 10
-1631.999999909999
 20
1865.758355425555
 30
0.0
 40
38.00629340277778
  1
エンクロージャー
 41
0.7
 11
-1631.999999909999
 21
1903.764648828333
 31
0.0
100
AcDbText
 73
     3
  0
TEXT
  5
67
330
413
100
AcDbEntity
  8
SPEC
 62
     7
100
AcDbText
 10
-981.9999999099993
 20
2390.758355425555
 30
0.0
 40
38.00629340277778
  1
30Hz～150Hz
 41
0.7
 11
-981.9999999099993
 21
2428.764648828333
 31
0.0
100
AcDbText
 73
     3
  0
TEXT
  5
68
330
413
100
AcDbEntity
  8
SPEC
 62
     7
100
AcDbText
 10
-981.9999999099993
 20
2315.758355425555
 30
0.0
 40
38.00629340277778
  1
141dB
 41
0.7
 11
-981.9999999099993
 21
2353.764648828333
 31
0.0
100
AcDbText
 73
     3
  0
TEXT
  5
69
330
413
100
AcDbEntity
  8
SPEC
 62
     7
100
AcDbText
 10
-981.9999999099993
 20
2240.758355425555
 30
0.0
 40
38.00629340277778
  1
96dB
 41
0.7
 11
-981.9999999099993
 21
2278.764648828333
 31
0.0
100
AcDbText
 73
     3
  0
TEXT
  5
6A
330
413
100
AcDbEntity
  8
SPEC
 62
     7
100
AcDbText
 10
-981.9999999099993
 20
2165.758355425555
 30
0.0
 40
38.00629340277778
  1
4Ω
 41
0.7
 11
-981.9999999099993
 21
2203.764648828333
 31
0.0
100
AcDbText
 73
     3
  0
TEXT
  5
6B
330
413
100
AcDbEntity
  8
SPEC
 62
     7
100
AcDbText
 10
-981.9999999099993
 20
2090.758355425555
 30
0.0
 40
38.00629340277778
  1
1,200W(連続)、4,800W(ピーク)
 41
0.7
 11
-981.9999999099993
 21
2128.764648828333
 31
0.0
100
AcDbText
 73
     3
  0
TEXT
  5
6C
330
413
100
AcDbEntity
  8
SPEC
 62
     7
100
AcDbText
 10
-981.9999999099993
 20
2015.758355425555
 30
0.0
 40
38.00629340277778
  1
2279H(18インチ(460mm))×2
 41
0.7
 11
-981.9999999099993
 21
2053.764648828332
 31
0.0
100
AcDbText
 73
     3
  0
TEXT
  5
6D
330
413
100
AcDbEntity
  8
SPEC
 62
     7
100
AcDbText
 10
-981.9999999099993
 20
1940.758355425555
 30
0.0
 40
38.00629340277778
  1
4Pスピコン×2
 41
0.7
 11
-981.9999999099993
 21
1978.764648828333
 31
0.0
100
AcDbText
 73
     3
  0
TEXT
  5
6E
330
413
100
AcDbEntity
  8
SPEC
 62
     7
100
AcDbText
 10
-981.9999999099993
 20
1865.758355425555
 30
0.0
 40
38.00629340277778
  1
18mm合板、Duraflex仕上げ
 41
0.7
 11
-981.9999999099993
 21
1903.764648828333
 31
0.0
100
AcDbText
 73
     3
  0
TEXT
  5
6F
330
413
100
AcDbEntity
  8
DIMNSIONS
 62
     7
100
AcDbText
 10
-399.9999999449994
 20
-2304.610200006135
 30
0.0
 40
48.86523437377837
  1
(単位：mm)
 41
0.7
 11
-399.9999999449994
 21
-2255.744965632356
 31
0.0
100
AcDbText
 73
     3
  0
LINE
  5
70
330
413
100
AcDbEntity
  8
DIMNSIONS
  6
Continuous
 62
     7
100
AcDbLine
 10
-1600.998399897587
 20
-1517.3
 30
0.0
 11
-1600.998399897587
 21
-1645.0
 31
0.0
  0
LINE
  5
71
330
413
100
AcDbEntity
  8
DIMNSIONS
  6
Continuous
 62
     7
100
AcDbLine
 10
-399.0
 20
-1517.5
 30
0.0
 11
-399.0
 21
-1645.0
 31
0.0
  0
LINE
  5
72
330
413
100
AcDbEntity
  8
DIMNSIONS
  6
Continuous
 62
     7
100
AcDbLine
 10
-1600.998399897587
 20
-1625.0
 30
0.0
 11
-399.0
 21
-1625.0
 31
0.0
  0
LINE
  5
73
330
413
100
AcDbEntity
  8
DIMNSIONS
  6
Continuous
 62
     7
100
AcDbLine
 10
-1600.998399897587
 20
-1625.0
 30
0.0
 11
-1561.000841303837
 21
-1614.282686475588
 31
0.0
  0
LINE
  5
74
330
413
100
AcDbEntity
  8
DIMNSIONS
  6
Continuous
 62
     7
100
AcDbLine
 10
-1600.998399897587
 20
-1625.0
 30
0.0
 11
-1561.000841303837
 21
-1635.717313524412
 31
0.0
  0
LINE
  5
75
330
413
100
AcDbEntity
  8
DIMNSIONS
  6
Continuous
 62
     7
100
AcDbLine
 10
-399.0
 20
-1625.0
 30
0.0
 11
-438.99755859375
 21
-1635.717313524412
 31
0.0
  0
LINE
  5
76
330
413
100
AcDbEntity
  8
DIMNSIONS
  6
Continuous
 62
     7
100
AcDbLine
 10
-399.0
 20
-1625.0
 30
0.0
 11
-438.99755859375
 21
-1614.282686475588
 31
0.0
  0
TEXT
  5
77
330
413
100
AcDbEntity
  8
DIMNSIONS
 62
     7
100
AcDbText
 10
-1070.554755504349
 20
-1605.122222222222
 30
0.0
 40
54.29470486111111
  1
1202
 41
0.7
 11
-1070.554755504349
 21
-1550.827517361111
 31
0.0
100
AcDbText
 73
     3
  0
LINE
  5
78
330
413
100
AcDbEntity
  8
DIMNSIONS
  6
Continuous
 62
     7
100
AcDbLine
 10
-1619.5
 20
-1500.0
 30
0.0
 11
-1670.0
 21
-1500.0
 31
0.0
  0
LINE
  5
79
330
413
100
AcDbEntity
  8
DIMNSIONS
  6
Continuous
 62
     7
100
AcDbLine
 10
-1618.5
 20
-930.0
 30
0.0
 11
-1670.0
 21
-930.0
 31
0.0
  0
LINE
  5
7A
330
413
100
AcDbEntity
  8
DIMNSIONS
  6
Continuous
 62
     7
100
AcDbLine
 10
-1650.0
 20
-1500.0
 30
0.0
 11
-1650.0
 21
-930.0
 31
0.0
  0
LINE
  5
7B
330
413
100
AcDbEntity
  8
DIMNSIONS
  6
Continuous
 62
     7
100
AcDbLine
 10
-1650.0
 20
-1500.0
 30
0.0
 11
-1660.717313524411
 21
-1460.00244140625
 31
0.0
  0
LINE
  5
7C
330
413
100
AcDbEntity
  8
DIMNSIONS
  6
Continuous
 62
     7
100
AcDbLine
 10
-1650.0
 20
-1500.0
 30
0.0
 11
-1639.282686475588
 21
-1460.00244140625
 31
0.0
  0
LINE
  5
7D
330
413
100
AcDbEntity
  8
DIMNSIONS
  6
Continuous
 62
     7
100
AcDbLine
 10
-1650.0
 20
-930.0
 30
0.0
 11
-1639.282686475588
 21
-969.9975585937499
 31
0.0
  0
LINE
  5
7E
330
413
100
AcDbEntity
  8
DIMNSIONS
  6
Continuous
 62
     7
100
AcDbLine
 10
-1650.0
 20
-930.0
 30
0.0
 11
-1660.717313524411
 21
-969.9975585937499
 31
0.0
  0
TEXT
  5
7F
330
413
100
AcDbEntity
  8
DIMNSIONS
 62
     7
100
AcDbText
 10
-1669.877777777778
 20
-1267.916666666667
 30
0.0
 40
54.29470486111111
  1
570
 50
90.0
 41
0.7
 11
-1724.172482638889
 21
-1267.916666666667
 31
0.0
100
AcDbText
 73
     3
  0
LINE
  5
80
330
413
100
AcDbEntity
  8
DIMNSIONS
  6
Continuous
 62
     7
100
AcDbLine
 10
-1618.5
 20
-1500.0
 30
0.0
 11
-1670.0
 21
-1500.0
 31
0.0
  0
LINE
  5
81
330
413
100
AcDbEntity
  8
DIMNSIONS
  6
Continuous
 62
     7
100
AcDbLine
 10
-1605.5
 20
-1503.81
 30
0.0
 11
-1670.0
 21
-1503.81
 31
0.0
  0
LINE
  5
82
330
413
100
AcDbEntity
  8
DIMNSIONS
  6
Continuous
 62
     7
100
AcDbLine
 10
-1650.0
 20
-1503.81
 30
0.0
 11
-1650.0
 21
-1500.0
 31
0.0
  0
LINE
  5
83
330
413
100
AcDbEntity
  8
DIMNSIONS
  6
Continuous
 62
     7
100
AcDbLine
 10
-1650.0
 20
-1500.0
 30
0.0
 11
-1650.0
 21
-1430.0
 31
0.0
  0
LINE
  5
84
330
413
100
AcDbEntity
  8
DIMNSIONS
  6
Continuous
 62
     7
100
AcDbLine
 10
-1650.0
 20
-1500.0
 30
0.0
 11
-1660.717313524411
 21
-1460.00244140625
 31
0.0
  0
LINE
  5
85
330
413
100
AcDbEntity
  8
DIMNSIONS
  6
Continuous
 62
     7
100
AcDbLine
 10
-1650.0
 20
-1500.0
 30
0.0
 11
-1639.282686475588
 21
-1460.00244140625
 31
0.0
  0
LINE
  5
86
330
413
100
AcDbEntity
  8
DIMNSIONS
  6
Continuous
 62
     7
100
AcDbLine
 10
-1650.0
 20
-1503.81
 30
0.0
 11
-1650.0
 21
-1630.833333333333
 31
0.0
  0
LINE
  5
87
330
413
100
AcDbEntity
  8
DIMNSIONS
  6
Continuous
 62
     7
100
AcDbLine
 10
-1650.0
 20
-1503.81
 30
0.0
 11
-1639.282686475588
 21
-1543.80755859375
 31
0.0
  0
LINE
  5
88
330
413
100
AcDbEntity
  8
DIMNSIONS
  6
Continuous
 62
     7
100
AcDbLine
 10
-1650.0
 20
-1503.81
 30
0.0
 11
-1660.717313524411
 21
-1543.80755859375
 31
0.0
  0
TEXT
  5
89
330
413
100
AcDbEntity
  8
DIMNSIONS
 62
     7
100
AcDbText
 10
-1669.877777777778
 20
-1630.833333333333
 30
0.0
 40
54.29470486111111
  1
3.8
 50
90.0
 41
0.7
 11
-1724.172482638889
 21
-1630.833333333333
 31
0.0
100
AcDbText
 73
     3
  0
LINE
  5
8A
330
413
100
AcDbEntity
  8
DIMNSIONS
  6
Continuous
 62
     7
100
AcDbLine
 10
-1525.551788603612
 20
-875.0
 30
0.0
 11
-1670.0
 21
-875.0
 31
0.0
  0
LINE
  5
8B
330
413
100
AcDbEntity
  8
DIMNSIONS
  6
Continuous
 62
     7
100
AcDbLine
 10
-1618.5
 20
-193.0
 30
0.0
 11
-1670.0
 21
-193.0
 31
0.0
  0
LINE
  5
8C
330
413
100
AcDbEntity
  8
DIMNSIONS
  6
Continuous
 62
     7
100
AcDbLine
 10
-1650.0
 20
-875.0
 30
0.0
 11
-1650.0
 21
-193.0
 31
0.0
  0
LINE
  5
8D
330
413
100
AcDbEntity
  8
DIMNSIONS
  6
Continuous
 62
     7
100
AcDbLine
 10
-1650.0
 20
-875.0
 30
0.0
 11
-1660.717313524411
 21
-835.0024414062499
 31
0.0
  0
LINE
  5
8E
330
413
100
AcDbEntity
  8
DIMNSIONS
  6
Continuous
 62
     7
100
AcDbLine
 10
-1650.0
 20
-875.0
 30
0.0
 11
-1639.282686475588
 21
-835.0024414062499
 31
0.0
  0
LINE
  5
8F
330
413
100
AcDbEntity
  8
DIMNSIONS
  6
Continuous
 62
     7
100
AcDbLine
 10
-1650.0
 20
-193.0
 30
0.0
 11
-1639.282686475588
 21
-232.99755859375
 31
0.0
  0
LINE
  5
90
330
413
100
AcDbEntity
  8
DIMNSIONS
  6
Continuous
 62
     7
100
AcDbLine
 10
-1650.0
 20
-193.0
 30
0.0
 11
-1660.717313524411
 21
-232.99755859375
 31
0.0
  0
TEXT
  5
91
330
413
100
AcDbEntity
  8
DIMNSIONS
 62
     7
100
AcDbText
 10
-1669.877777777778
 20
-586.9166666666667
 30
0.0
 40
54.29470486111111
  1
682
 50
90.0
 41
0.7
 11
-1724.172482638889
 21
-586.9166666666667
 31
0.0
100
AcDbText
 73
     3
  0
LINE
  5
92
330
413
100
AcDbEntity
  8
DIMNSIONS
  6
Continuous
 62
     7
100
AcDbLine
 10
-1618.5
 20
-193.0
 30
0.0
 11
-1670.0
 21
-193.0
 31
0.0
  0
LINE
  5
93
330
413
100
AcDbEntity
  8
DIMNSIONS
  6
Continuous
 62
     7
100
AcDbLine
 10
-1608.5
 20
-188.787592258548
 30
0.0
 11
-1670.0
 21
-188.787592258548
 31
0.0
  0
LINE
  5
94
330
413
100
AcDbEntity
  8
DIMNSIONS
  6
Continuous
 62
     7
100
AcDbLine
 10
-1650.0
 20
-188.787592258548
 30
0.0
 11
-1650.0
 21
-193.0
 31
0.0
  0
LINE
  5
95
330
413
100
AcDbEntity
  8
DIMNSIONS
  6
Continuous
 62
     7
100
AcDbLine
 10
-1650.0
 20
-193.0
 30
0.0
 11
-1650.0
 21
-263.0
 31
0.0
  0
LINE
  5
96
330
413
100
AcDbEntity
  8
DIMNSIONS
  6
Continuous
 62
     7
100
AcDbLine
 10
-1650.0
 20
-193.0
 30
0.0
 11
-1639.282686475588
 21
-232.99755859375
 31
0.0
  0
LINE
  5
97
330
413
100
AcDbEntity
  8
DIMNSIONS
  6
Continuous
 62
     7
100
AcDbLine
 10
-1650.0
 20
-193.0
 30
0.0
 11
-1660.717313524411
 21
-232.99755859375
 31
0.0
  0
LINE
  5
98
330
413
100
AcDbEntity
  8
DIMNSIONS
  6
Continuous
 62
     7
100
AcDbLine
 10
-1650.0
 20
-188.787592258548
 30
0.0
 11
-1650.0
 21
-69.16666666666666
 31
0.0
  0
LINE
  5
99
330
413
100
AcDbEntity
  8
DIMNSIONS
  6
Continuous
 62
     7
100
AcDbLine
 10
-1650.0
 20
-188.787592258548
 30
0.0
 11
-1660.717313524411
 21
-148.790033664798
 31
0.0
  0
LINE
  5
9A
330
413
100
AcDbEntity
  8
DIMNSIONS
  6
Continuous
 62
     7
100
AcDbLine
 10
-1650.0
 20
-188.787592258548
 30
0.0
 11
-1639.282686475588
 21
-148.790033664798
 31
0.0
  0
TEXT
  5
9B
330
413
100
AcDbEntity
  8
DIMNSIONS
 62
     7
100
AcDbText
 10
-1669.877777777778
 20
-175.0
 30
0.0
 40
54.29470486111111
  1
4.2
 50
90.0
 41
0.7
 11
-1724.172482638889
 21
-175.0
 31
0.0
100
AcDbText
 73
     3
  0
TEXT
  5
9C
330
413
100
AcDbEntity
  8
DATA
 62
     7
100
AcDbText
 10
-1749.999999911249
 20
-2392.474444448382
 30
0.0
 40
38.00629340182763
  1
※仕様及び外観は予告なく変更されることがあります。
 41
0.7
 11
-1749.999999911249
 21
-2354.468151046555
 31
0.0
100
AcDbText
 73
     3
  0
TEXT
  5
9D
330
413
100
AcDbEntity
  8
DATA
 62
     7
100
AcDbText
 10
-1749.999999911249
 20
-2441.863333336036
 30
0.0
 40
38.00629340182763
  1
　また、同一商品でも若干の個体差があることがあります。ご了承ください。
 41
0.7
 11
-1749.999999911249
 21
-2403.857039934209
 31
0.0
100
AcDbText
 73
     3
  0
TEXT
  5
9E
330
413
100
AcDbEntity
  8
DATA
 62
     7
100
AcDbText
 10
1000.00000002
 20
-2182.38220000919
 30
0.0
 40
48.86523437377837
  1
JBL PROFESSIONAL
 41
0.7
 11
1000.00000002
 21
-2133.516965635411
 31
0.0
100
AcDbText
 73
     3
  0
TEXT
  5
9F
330
413
100
AcDbEntity
  8
DATA
 62
     7
100
AcDbText
 10
950.0000000212498
 20
-2251.921300007452
 30
0.0
 40
32.57682291585226
  1
サブウーファー
 41
0.7
 11
950.0000000212498
 21
-2219.3444770916
 31
0.0
100
AcDbText
 73
     3
  0
LINE
  5
A0
330
413
100
AcDbEntity
  8
DATA
  6
Continuous
 62
     7
100
AcDbLine
 10
-1601.0
 20
-205.5
 30
0.0
 11
-1601.0
 21
-818.8255392233845
 31
0.0
  0
LINE
  5
A1
330
413
100
AcDbEntity
  8
DATA
  6
Continuous
 62
     7
100
AcDbLine
 10
-1495.551788603612
 20
-875.0
 30
0.0
 11
-503.4482113963877
 21
-875.0
 31
0.0
  0
LINE
  5
A2
330
413
100
AcDbEntity
  8
DATA
  6
Continuous
 62
     7
100
AcDbLine
 10
-1500.867686394413
 20
-873.8133209393954
 30
0.0
 11
-1593.8158977908
 21
-830.1388601627801
 31
0.0
  0
ARC
  5
A3
330
413
100
AcDbEntity
  8
DATA
  6
Continuous
 62
     7
100
AcDbCircle
 10
-1588.5
 20
-205.5
 30
0.0
 40
12.5
100
AcDbArc
 50
90.0
 51
180.0
  0
ARC
  5
A4
330
413
100
AcDbEntity
  8
DATA
  6
Continuous
 62
     7
100
AcDbCircle
 10
-1588.5
 20
-818.8255392233845
 30
0.0
 40
12.5
100
AcDbArc
 50
180.0
 51
244.832129850217
  0
ARC
  5
A5
330
413
100
AcDbEntity
  8
DATA
  6
Continuous
 62
     7
100
AcDbCircle
 10
-1495.551788603612
 20
-862.5
 30
0.0
 40
12.50000000000009
100
AcDbArc
 50
244.832129850217
 51
270.0
  0
LINE
  5
A6
330
413
100
AcDbEntity
  8
DATA
  6
Continuous
 62
     7
100
AcDbLine
 10
-1588.5
 20
-193.0
 30
0.0
 11
-410.5
 21
-193.0
 31
0.0
  0
LINE
  5
A7
330
413
100
AcDbEntity
  8
DATA
  6
Continuous
 62
     7
100
AcDbLine
 10
-1494.156587939368
 20
-862.5
 30
0.0
 11
-504.8434120606317
 21
-862.5
 31
0.0
  0
LINE
  5
A8
330
413
100
AcDbEntity
  8
DATA
  6
Continuous
 62
     7
100
AcDbLine
 10
-1496.814536834768
 20
-861.9066604696977
 30
0.0
 11
-1584.9079488954
 21
-820.513370465305
 31
0.0
  0
LINE
  5
A9
330
413
100
AcDbEntity
  8
DATA
  6
Continuous
 62
     7
100
AcDbLine
 10
-1588.5
 20
-193.0
 30
0.0
 11
-1588.5
 21
-814.8567099956069
 31
0.0
  0
LINE
  5
AA
330
413
100
AcDbEntity
  8
DATA
  6
Continuous
 62
     7
100
AcDbLine
 10
-1601.0
 20
-205.5
 30
0.0
 11
-398.0
 21
-205.5
 31
0.0
  0
ARC
  5
AB
330
413
100
AcDbEntity
  8
DATA
  6
Continuous
 62
     7
100
AcDbCircle
 10
-1582.250000000001
 20
-814.8567099956066
 30
0.0
 40
6.24999999999909
100
AcDbArc
 50
180.0000000000042
 51
244.8321298502264
  0
LINE
  5
AC
330
413
100
AcDbEntity
  8
DATA
  6
Continuous
 62
     7
100
AcDbLine
 10
-1588.5
 20
-814.8567099956069
 30
0.0
 11
-1601.0
 21
-818.8255392233845
 31
0.0
  0
LINE
  5
AD
330
413
100
AcDbEntity
  8
DATA
  6
Continuous
 62
     7
100
AcDbLine
 10
-1584.9079488954
 20
-820.513370465305
 30
0.0
 11
-1593.8158977908
 21
-830.1388601627801
 31
0.0
  0
ARC
  5
AE
330
413
100
AcDbEntity
  8
DATA
  6
Continuous
 62
     7
100
AcDbCircle
 10
-1494.156587939367
 20
-856.25
 30
0.0
 40
6.25000000000043
100
AcDbArc
 50
244.8321298502096
 51
269.9999999999916
  0
LINE
  5
AF
330
413
100
AcDbEntity
  8
DATA
  6
Continuous
 62
     7
100
AcDbLine
 10
-1496.814536834768
 20
-861.9066604696977
 30
0.0
 11
-1500.867686394413
 21
-873.8133209393954
 31
0.0
  0
LINE
  5
B0
330
413
100
AcDbEntity
  8
DATA
  6
Continuous
 62
     7
100
AcDbLine
 10
-1494.156587939368
 20
-862.5
 30
0.0
 11
-1495.551788603612
 21
-875.0
 31
0.0
  0
LINE
  5
B1
330
413
100
AcDbEntity
  8
DATA
  6
Continuous
 62
     7
100
AcDbLine
 10
-399.0
 20
-205.5
 30
0.0
 11
-399.0
 21
-818.8255392233845
 31
0.0
  0
LINE
  5
B2
330
413
100
AcDbEntity
  8
DATA
  6
Continuous
 62
     7
100
AcDbLine
 10
-499.1323136055871
 20
-873.8133209393954
 30
0.0
 11
-406.1841022091993
 21
-830.1388601627801
 31
0.0
  0
ARC
  5
B3
330
413
100
AcDbEntity
  8
DATA
  6
Continuous
 62
     7
100
AcDbCircle
 10
-411.5
 20
-205.5
 30
0.0
 40
12.5
100
AcDbArc
 50
0.0
 51
90.0
  0
ARC
  5
B4
330
413
100
AcDbEntity
  8
DATA
  6
Continuous
 62
     7
100
AcDbCircle
 10
-411.5
 20
-818.8255392233845
 30
0.0
 40
12.50000000000009
100
AcDbArc
 50
295.167870149783
 51
0.0
  0
ARC
  5
B5
330
413
100
AcDbEntity
  8
DATA
  6
Continuous
 62
     7
100
AcDbCircle
 10
-504.4482113963876
 20
-862.5
 30
0.0
 40
12.5
100
AcDbArc
 50
270.0
 51
295.167870149783
  0
LINE
  5
B6
330
413
100
AcDbEntity
  8
DATA
  6
Continuous
 62
     7
100
AcDbLine
 10
-503.1854631652314
 20
-861.9066604696977
 30
0.0
 11
-415.0920511045996
 21
-820.513370465305
 31
0.0
  0
LINE
  5
B7
330
413
100
AcDbEntity
  8
DATA
  6
Continuous
 62
     7
100
AcDbLine
 10
-411.5
 20
-193.0
 30
0.0
 11
-411.5
 21
-814.8567099956069
 31
0.0
  0
ARC
  5
B8
330
413
100
AcDbEntity
  8
DATA
  6
Continuous
 62
     7
100
AcDbCircle
 10
-417.7499999999991
 20
-814.8567099956066
 30
0.0
 40
6.250000000000068
100
AcDbArc
 50
295.1678701497737
 51
359.999999999996
  0
LINE
  5
B9
330
413
100
AcDbEntity
  8
DATA
  6
Continuous
 62
     7
100
AcDbLine
 10
-411.5
 20
-814.8567099956069
 30
0.0
 11
-399.0
 21
-818.8255392233845
 31
0.0
  0
LINE
  5
BA
330
413
100
AcDbEntity
  8
DATA
  6
Continuous
 62
     7
100
AcDbLine
 10
-415.0920511045996
 20
-820.513370465305
 30
0.0
 11
-406.1841022091993
 21
-830.1388601627801
 31
0.0
  0
ARC
  5
BB
330
413
100
AcDbEntity
  8
DATA
  6
Continuous
 62
     7
100
AcDbCircle
 10
-505.8434120606325
 20
-856.25
 30
0.0
 40
6.25
100
AcDbArc
 50
270.0000000000084
 51
295.1678701497905
  0
LINE
  5
BC
330
413
100
AcDbEntity
  8
DATA
  6
Continuous
 62
     7
100
AcDbLine
 10
-503.1854631652314
 20
-861.9066604696977
 30
0.0
 11
-499.1323136055871
 21
-873.8133209393954
 31
0.0
  0
LINE
  5
BD
330
413
100
AcDbEntity
  8
DATA
  6
Continuous
 62
     7
100
AcDbLine
 10
-505.8434120606317
 20
-862.5
 30
0.0
 11
-504.4482113963876
 21
-875.0
 31
0.0
  0
CIRCLE
  5
BE
330
413
100
AcDbEntity
  8
DATA
  6
Continuous
 62
     7
100
AcDbCircle
 10
-1559.0
 20
-236.1
 30
0.0
 40
20.10000000000002
  0
CIRCLE
  5
BF
330
413
100
AcDbEntity
  8
DATA
  6
Continuous
 62
     7
100
AcDbCircle
 10
-441.0
 20
-236.1
 30
0.0
 40
20.10000000000002
  0
CIRCLE
  5
C0
330
413
100
AcDbEntity
  8
DATA
  6
Continuous
 62
     7
100
AcDbCircle
 10
-1559.0
 20
-792.0999999999998
 30
0.0
 40
20.10000000000013
  0
CIRCLE
  5
C1
330
413
100
AcDbEntity
  8
DATA
  6
Continuous
 62
     7
100
AcDbCircle
 10
-441.0
 20
-792.0999999999998
 30
0.0
 40
20.10000000000013
  0
LINE
  5
C2
330
413
100
AcDbEntity
  8
DATA
  6
Continuous
 62
     7
100
AcDbLine
 10
-399.0
 20
-942.5
 30
0.0
 11
-399.0
 21
-1487.5
 31
0.0
  0
LINE
  5
C3
330
413
100
AcDbEntity
  8
DATA
  6
Continuous
 62
     7
100
AcDbLine
 10
-1588.5
 20
-930.0
 30
0.0
 11
-411.5
 21
-930.0
 31
0.0
  0
LINE
  5
C4
330
413
100
AcDbEntity
  8
DATA
  6
Continuous
 62
     7
100
AcDbLine
 10
-1588.5
 20
-1500.0
 30
0.0
 11
-411.5
 21
-1500.0
 31
0.0
  0
ARC
  5
C5
330
413
100
AcDbEntity
  8
DATA
  6
Continuous
 62
     7
100
AcDbCircle
 10
-411.5
 20
-1487.5
 30
0.0
 40
12.5
100
AcDbArc
 50
270.0
 51
0.0
  0
ARC
  5
C6
330
413
100
AcDbEntity
  8
DATA
  6
Continuous
 62
     7
100
AcDbCircle
 10
-411.5
 20
-942.5
 30
0.0
 40
12.5
100
AcDbArc
 50
0.0
 51
90.0
  0
LINE
  5
C7
330
413
100
AcDbEntity
  8
DATA
  6
Continuous
 62
     7
100
AcDbLine
 10
-1601.0
 20
-945.4339745962148
 30
0.0
 11
-399.0
 21
-945.4339745962148
 31
0.0
  0
LINE
  5
C8
330
413
100
AcDbEntity
  8
DATA
  6
Continuous
 62
     7
100
AcDbLine
 10
-1601.0
 20
-947.4339745962147
 30
0.0
 11
-399.0
 21
-947.4339745962147
 31
0.0
  0
ARC
  5
C9
330
413
100
AcDbEntity
  8
DATA
  6
Continuous
 62
     7
100
AcDbCircle
 10
-440.3238647285662
 20
-946.2049952148868
 30
0.0
 40
26.5800393291646
100
AcDbArc
 50
1.662240766730394
 51
37.56548964400046
  0
ARC
  5
CA
330
413
100
AcDbEntity
  8
DATA
  6
Continuous
 62
     7
100
AcDbCircle
 10
-523.6576011229117
 20
-945.2317485328272
 30
0.0
 40
24.52612124222156
100
AcDbArc
 50
359.5275718032528
 51
38.39225831249122
  0
LINE
  5
CB
330
413
100
AcDbEntity
  8
DATA
  6
Continuous
 62
     7
100
AcDbLine
 10
-413.7550104449219
 20
-945.4339745962148
 30
0.0
 11
-413.7550104449219
 21
-982.9937970833455
 31
0.0
  0
LINE
  5
CC
330
413
100
AcDbEntity
  8
DATA
  6
Continuous
 62
     7
100
AcDbLine
 10
-499.1323136055871
 20
-945.4339745962148
 30
0.0
 11
-499.1323136055871
 21
-1484.566025403785
 31
0.0
  0
ARC
  5
CD
330
413
100
AcDbEntity
  8
DATA
  6
Continuous
 62
     7
100
AcDbCircle
 10
-415.4435583246468
 20
-989.288429838089
 30
0.0
 40
6.517176954726104
100
AcDbArc
 50
11.4023495116332
 51
95.3835008631375
  0
ARC
  5
CE
330
413
100
AcDbEntity
  8
DATA
  6
Continuous
 62
     7
100
AcDbCircle
 10
-435.6550104449216
 20
-1261.99999999997
 30
0.0
 40
279.8871201037728
100
AcDbArc
 50
85.98439126523343
 51
100.041183743134
  0
ARC
  5
CF
330
413
100
AcDbEntity
  8
DATA
  6
Continuous
 62
     7
100
AcDbCircle
 10
-477.7777072842481
 20
-1007.203032638854
 30
0.0
 40
21.84839912837463
100
AcDbArc
 50
107.795455854336
 51
167.7954558543138
  0
LINE
  5
D0
330
413
100
AcDbEntity
  8
DATA
  6
Continuous
 62
     7
100
AcDbLine
 10
-409.055010444922
 20
-988.0
 30
0.0
 11
-409.055010444922
 21
-1442.0
 31
0.0
  0
LINE
  5
D1
330
413
100
AcDbEntity
  8
DATA
  6
Continuous
 62
     7
100
AcDbLine
 10
-409.055010444922
 20
-988.0
 30
0.0
 11
-482.4550104449216
 21
-1001.2
 31
0.0
  0
ARC
  5
D2
330
413
100
AcDbEntity
  8
DATA
  6
Continuous
 62
     7
100
AcDbCircle
 10
-481.4149182522714
 20
-1004.85279745687
 30
0.0
 40
3.779910082624796
100
AcDbArc
 50
101.2912416325015
 51
188.323730232904
  0
LINE
  5
D3
330
413
100
AcDbEntity
  8
DATA
  6
Continuous
 62
     7
100
AcDbLine
 10
-485.1550104449215
 20
-1005.4
 30
0.0
 11
-485.1550104449215
 21
-1424.6
 31
0.0
  0
LINE
  5
D4
330
413
100
AcDbEntity
  8
DATA
  6
Continuous
 62
     7
100
AcDbLine
 10
-482.4550104449216
 20
-1001.2
 30
0.0
 11
-484.4550104449217
 21
-986.4000000000002
 31
0.0
  0
LINE
  5
D5
330
413
100
AcDbEntity
  8
DATA
  6
Continuous
 62
     7
100
AcDbLine
 10
-485.1550104449215
 20
-1005.4
 30
0.0
 11
-499.1323136055871
 21
-1002.584230485332
 31
0.0
  0
ARC
  5
D6
330
413
100
AcDbEntity
  8
DATA
  6
Continuous
 62
     7
100
AcDbCircle
 10
-415.4435583246468
 20
-1440.711570161911
 30
0.0
 40
6.517176954724686
100
AcDbArc
 50
264.6164991368625
 51
348.5976504883668
  0
ARC
  5
D7
330
413
100
AcDbEntity
  8
DATA
  6
Continuous
 62
     7
100
AcDbCircle
 10
-435.6550104449216
 20
-1168.000000000029
 30
0.0
 40
279.8871201037731
100
AcDbArc
 50
259.958816256866
 51
274.0156087347665
  0
ARC
  5
D8
330
413
100
AcDbEntity
  8
DATA
  6
Continuous
 62
     7
100
AcDbCircle
 10
-477.7777072842481
 20
-1422.796967361146
 30
0.0
 40
21.84839912837425
100
AcDbArc
 50
192.2045441456863
 51
252.204544145664
  0
LINE
  5
D9
330
413
100
AcDbEntity
  8
DATA
  6
Continuous
 62
     7
100
AcDbLine
 10
-409.055010444922
 20
-1442.0
 30
0.0
 11
-482.4550104449216
 21
-1428.8
 31
0.0
  0
ARC
  5
DA
330
413
100
AcDbEntity
  8
DATA
  6
Continuous
 62
     7
100
AcDbCircle
 10
-481.4149182522714
 20
-1425.147202543129
 30
0.0
 40
3.779910082624948
100
AcDbArc
 50
171.6762697670961
 51
258.7087583674985
  0
LINE
  5
DB
330
413
100
AcDbEntity
  8
DATA
  6
Continuous
 62
     7
100
AcDbLine
 10
-482.4550104449216
 20
-1428.8
 30
0.0
 11
-484.4550104449217
 21
-1443.6
 31
0.0
  0
LINE
  5
DC
330
413
100
AcDbEntity
  8
DATA
  6
Continuous
 62
     7
100
AcDbLine
 10
-485.1550104449215
 20
-1424.6
 30
0.0
 11
-499.1323136055871
 21
-1427.415769514668
 31
0.0
  0
ARC
  5
DD
330
413
100
AcDbEntity
  8
DATA
  6
Continuous
 62
     7
100
AcDbCircle
 10
-440.3238647285662
 20
-1483.795004785113
 30
0.0
 40
26.58003932916462
100
AcDbArc
 50
322.4345103559995
 51
358.3377592332697
  0
ARC
  5
DE
330
413
100
AcDbEntity
  8
DATA
  6
Continuous
 62
     7
100
AcDbCircle
 10
-523.6576011229117
 20
-1484.768251467173
 30
0.0
 40
24.52612124222177
100
AcDbArc
 50
321.6077416875088
 51
0.4724281967472166
  0
LINE
  5
DF
330
413
100
AcDbEntity
  8
DATA
  6
Continuous
 62
     7
100
AcDbLine
 10
-413.7550104449219
 20
-1484.566025403785
 30
0.0
 11
-413.7550104449219
 21
-1447.006202916654
 31
0.0
  0
LINE
  5
E0
330
413
100
AcDbEntity
  8
DATA
  6
Continuous
 62
     7
100
AcDbLine
 10
-1601.0
 20
-942.5
 30
0.0
 11
-1601.0
 21
-1487.5
 31
0.0
  0
ARC
  5
E1
330
413
100
AcDbEntity
  8
DATA
  6
Continuous
 62
     7
100
AcDbCircle
 10
-1588.5
 20
-1487.5
 30
0.0
 40
12.5
100
AcDbArc
 50
180.0
 51
270.0
  0
ARC
  5
E2
330
413
100
AcDbEntity
  8
DATA
  6
Continuous
 62
     7
100
AcDbCircle
 10
-1588.5
 20
-942.5
 30
0.0
 40
12.5
100
AcDbArc
 50
90.0
 51
180.0
  0
ARC
  5
E3
330
413
100
AcDbEntity
  8
DATA
  6
Continuous
 62
     7
100
AcDbCircle
 10
-1559.676135271433
 20
-946.2049952148868
 30
0.0
 40
26.58003932916462
100
AcDbArc
 50
142.4345103559995
 51
178.3377592332696
  0
ARC
  5
E4
330
413
100
AcDbEntity
  8
DATA
  6
Continuous
 62
     7
100
AcDbCircle
 10
-1476.342398877088
 20
-945.2317485328272
 30
0.0
 40
24.52612124222177
100
AcDbArc
 50
141.6077416875088
 51
180.4724281967471
  0
LINE
  5
E5
330
413
100
AcDbEntity
  8
DATA
  6
Continuous
 62
     7
100
AcDbLine
 10
-1586.244989555078
 20
-945.4339745962148
 30
0.0
 11
-1586.244989555078
 21
-982.9937970833455
 31
0.0
  0
LINE
  5
E6
330
413
100
AcDbEntity
  8
DATA
  6
Continuous
 62
     7
100
AcDbLine
 10
-1500.867686394413
 20
-945.4339745962148
 30
0.0
 11
-1500.867686394413
 21
-1484.566025403785
 31
0.0
  0
ARC
  5
E7
330
413
100
AcDbEntity
  8
DATA
  6
Continuous
 62
     7
100
AcDbCircle
 10
-1584.556441675353
 20
-989.288429838089
 30
0.0
 40
6.517176954724686
100
AcDbArc
 50
84.61649913686251
 51
168.5976504883668
  0
ARC
  5
E8
330
413
100
AcDbEntity
  8
DATA
  6
Continuous
 62
     7
100
AcDbCircle
 10
-1564.344989555078
 20
-1261.99999999997
 30
0.0
 40
279.8871201037731
100
AcDbArc
 50
79.95881625686599
 51
94.01560873476659
  0
ARC
  5
E9
330
413
100
AcDbEntity
  8
DATA
  6
Continuous
 62
     7
100
AcDbCircle
 10
-1522.222292715751
 20
-1007.203032638854
 30
0.0
 40
21.84839912837425
100
AcDbArc
 50
12.20454414568623
 51
72.20454414566397
  0
LINE
  5
EA
330
413
100
AcDbEntity
  8
DATA
  6
Continuous
 62
     7
100
AcDbLine
 10
-1590.944989555078
 20
-988.0
 30
0.0
 11
-1590.944989555078
 21
-1442.0
 31
0.0
  0
LINE
  5
EB
330
413
100
AcDbEntity
  8
DATA
  6
Continuous
 62
     7
100
AcDbLine
 10
-1590.944989555078
 20
-988.0
 30
0.0
 11
-1517.544989555078
 21
-1001.2
 31
0.0
  0
ARC
  5
EC
330
413
100
AcDbEntity
  8
DATA
  6
Continuous
 62
     7
100
AcDbCircle
 10
-1518.585081747728
 20
-1004.85279745687
 30
0.0
 40
3.779910082624948
100
AcDbArc
 50
351.6762697670961
 51
78.70875836749843
  0
LINE
  5
ED
330
413
100
AcDbEntity
  8
DATA
  6
Continuous
 62
     7
100
AcDbLine
 10
-1514.844989555078
 20
-1005.4
 30
0.0
 11
-1514.844989555078
 21
-1424.6
 31
0.0
  0
LINE
  5
EE
330
413
100
AcDbEntity
  8
DATA
  6
Continuous
 62
     7
100
AcDbLine
 10
-1517.544989555078
 20
-1001.2
 30
0.0
 11
-1515.544989555078
 21
-986.4000000000002
 31
0.0
  0
LINE
  5
EF
330
413
100
AcDbEntity
  8
DATA
  6
Continuous
 62
     7
100
AcDbLine
 10
-1514.844989555078
 20
-1005.4
 30
0.0
 11
-1500.867686394413
 21
-1002.584230485332
 31
0.0
  0
ARC
  5
F0
330
413
100
AcDbEntity
  8
DATA
  6
Continuous
 62
     7
100
AcDbCircle
 10
-1584.556441675353
 20
-1440.711570161911
 30
0.0
 40
6.517176954726104
100
AcDbArc
 50
191.4023495116332
 51
275.3835008631375
  0
ARC
  5
F1
330
413
100
AcDbEntity
  8
DATA
  6
Continuous
 62
     7
100
AcDbCircle
 10
-1564.344989555078
 20
-1168.000000000029
 30
0.0
 40
279.8871201037728
100
AcDbArc
 50
265.9843912652334
 51
280.041183743134
  0
ARC
  5
F2
330
413
100
AcDbEntity
  8
DATA
  6
Continuous
 62
     7
100
AcDbCircle
 10
-1522.222292715751
 20
-1422.796967361146
 30
0.0
 40
21.84839912837463
100
AcDbArc
 50
287.7954558543361
 51
347.7954558543138
  0
LINE
  5
F3
330
413
100
AcDbEntity
  8
DATA
  6
Continuous
 62
     7
100
AcDbLine
 10
-1590.944989555078
 20
-1442.0
 30
0.0
 11
-1517.544989555078
 21
-1428.8
 31
0.0
  0
ARC
  5
F4
330
413
100
AcDbEntity
  8
DATA
  6
Continuous
 62
     7
100
AcDbCircle
 10
-1518.585081747728
 20
-1425.147202543129
 30
0.0
 40
3.779910082624796
100
AcDbArc
 50
281.2912416325016
 51
8.323730232903981
  0
LINE
  5
F5
330
413
100
AcDbEntity
  8
DATA
  6
Continuous
 62
     7
100
AcDbLine
 10
-1517.544989555078
 20
-1428.8
 30
0.0
 11
-1515.544989555078
 21
-1443.6
 31
0.0
  0
LINE
  5
F6
330
413
100
AcDbEntity
  8
DATA
  6
Continuous
 62
     7
100
AcDbLine
 10
-1514.844989555078
 20
-1424.6
 30
0.0
 11
-1500.867686394413
 21
-1427.415769514668
 31
0.0
  0
ARC
  5
F7
330
413
100
AcDbEntity
  8
DATA
  6
Continuous
 62
     7
100
AcDbCircle
 10
-1559.676135271433
 20
-1483.795004785113
 30
0.0
 40
26.5800393291646
100
AcDbArc
 50
181.6622407667304
 51
217.5654896440005
  0
ARC
  5
F8
330
413
100
AcDbEntity
  8
DATA
  6
Continuous
 62
     7
100
AcDbCircle
 10
-1476.342398877088
 20
-1484.768251467173
 30
0.0
 40
24.52612124222156
100
AcDbArc
 50
179.5275718032528
 51
218.3922583124912
  0
LINE
  5
F9
330
413
100
AcDbEntity
  8
DATA
  6
Continuous
 62
     7
100
AcDbLine
 10
-1586.244989555078
 20
-1484.566025403785
 30
0.0
 11
-1586.244989555078
 21
-1447.006202916654
 31
0.0
  0
CIRCLE
  5
FA
330
413
100
AcDbEntity
  8
DATA
  6
Continuous
 62
     7
100
AcDbCircle
 10
-904.4550104449214
 20
-1469.4
 30
0.0
 40
5.0
  0
CIRCLE
  5
FB
330
413
100
AcDbEntity
  8
DATA
  6
Continuous
 62
     7
100
AcDbCircle
 10
-904.4550104449214
 20
-1469.4
 30
0.0
 40
3.0
  0
LINE
  5
FC
330
413
100
AcDbEntity
  8
DATA
  6
Continuous
 62
     7
100
AcDbLine
 10
-902.9550104449215
 20
-1469.4
 30
0.0
 11
-905.9550104449215
 21
-1469.4
 31
0.0
  0
LINE
  5
FD
330
413
100
AcDbEntity
  8
DATA
  6
Continuous
 62
     7
100
AcDbLine
 10
-904.4550104449214
 20
-1470.9
 30
0.0
 11
-904.4550104449214
 21
-1467.9
 31
0.0
  0
ARC
  5
FE
330
413
100
AcDbEntity
  8
DATA
  6
Continuous
 62
     7
100
AcDbCircle
 10
-998.8601029546407
 20
-1379.376605030525
 30
0.0
 40
0.4781746722280237
100
AcDbArc
 50
307.641902497588
 51
354.2670192893806
  0
LINE
  5
FF
330
413
100
AcDbEntity
  8
DATA
  6
Continuous
 62
     7
100
AcDbLine
 10
-1011.142600000001
 20
-1371.841346098334
 30
0.0
 11
-1008.90091
 21
-1366.500026098334
 31
0.0
  0
LINE
  5
100
330
413
100
AcDbEntity
  8
DATA
  6
Continuous
 62
     7
100
AcDbLine
 10
-1011.142600000001
 20
-1371.841346098334
 30
0.0
 11
-1013.35663
 21
-1366.500026098334
 31
0.0
  0
LINE
  5
101
330
413
100
AcDbEntity
  8
DATA
  6
Continuous
 62
     7
100
AcDbLine
 10
-994.1500000000003
 20
-1381.500026098334
 30
0.0
 11
-994.1500000000003
 21
-1366.500026098334
 31
0.0
  0
LINE
  5
102
330
413
100
AcDbEntity
  8
DATA
  6
Continuous
 62
     7
100
AcDbLine
 10
-991.2717700000003
 20
-1366.500026098334
 30
0.0
 11
-991.2717700000003
 21
-1379.202986098334
 31
0.0
  0
LINE
  5
103
330
413
100
AcDbEntity
  8
DATA
  6
Continuous
 62
     7
100
AcDbLine
 10
-1007.849245
 20
-1366.500026098334
 30
0.0
 11
-1007.849245
 21
-1379.202986098334
 31
0.0
  0
LINE
  5
104
330
413
100
AcDbEntity
  8
DATA
  6
Continuous
 62
     7
100
AcDbLine
 10
-1005.081715000001
 20
-1366.500026098334
 30
0.0
 11
-1005.081715000001
 21
-1379.202986098334
 31
0.0
  0
LINE
  5
105
330
413
100
AcDbEntity
  8
DATA
  6
Continuous
 62
     7
100
AcDbLine
 10
-1003.642600000001
 20
-1366.500026098334
 30
0.0
 11
-1003.642600000001
 21
-1381.500026098334
 31
0.0
  0
LINE
  5
106
330
413
100
AcDbEntity
  8
DATA
  6
Continuous
 62
     7
100
AcDbLine
 10
-1001.124145000001
 20
-1367.911451098334
 30
0.0
 11
-1001.124145000001
 21
-1372.726961098334
 31
0.0
  0
LINE
  5
107
330
413
100
AcDbEntity
  8
DATA
  6
Continuous
 62
     7
100
AcDbLine
 10
-995.7262750000008
 20
-1372.448321098334
 30
0.0
 11
-995.7262750000008
 21
-1368.935456098334
 31
0.0
  0
LINE
  5
108
330
413
100
AcDbEntity
  8
DATA
  6
Continuous
 62
     7
100
AcDbLine
 10
-998.38432
 20
-1368.575666098334
 30
0.0
 11
-998.38432
 21
-1372.062761098334
 31
0.0
  0
ARC
  5
109
330
413
100
AcDbEntity
  8
DATA
  6
Continuous
 62
     7
100
AcDbCircle
 10
-1008.404605
 20
-1377.648326098334
 30
0.0
 40
3.868280137751888
100
AcDbArc
 50
264.6908562215338
 51
323.9911991542392
  0
LINE
  5
10A
330
413
100
AcDbEntity
  8
DATA
  6
Continuous
 62
     7
100
AcDbLine
 10
-1009.95256
 20
-1376.795216098334
 30
0.0
 11
-1009.95256
 21
-1379.202956098334
 31
0.0
  0
LINE
  5
10B
330
413
100
AcDbEntity
  8
DATA
  6
Continuous
 62
     7
100
AcDbLine
 10
-1009.95256
 20
-1376.795216098334
 30
0.0
 11
-1012.443340000001
 21
-1376.795216098334
 31
0.0
  0
LINE
  5
10C
330
413
100
AcDbEntity
  8
DATA
  6
Continuous
 62
     7
100
AcDbLine
 10
-1012.443340000001
 20
-1376.795216098334
 30
0.0
 11
-1012.443340000001
 21
-1379.202956098334
 31
0.0
  0
ARC
  5
10D
330
413
100
AcDbEntity
  8
DATA
  6
Continuous
 62
     7
100
AcDbCircle
 10
-1008.895630000001
 20
-1379.235416098334
 30
0.0
 40
1.046893239363371
100
AcDbArc
 50
269.7118487927627
 51
1.775987005687227
  0
ARC
  5
10E
330
413
100
AcDbEntity
  8
DATA
  6
Continuous
 62
     7
100
AcDbCircle
 10
-1008.906175000001
 20
-1379.235416098334
 30
0.0
 40
1.046887886188987
100
AcDbArc
 50
178.2240129943226
 51
270.2881512072897
  0
ARC
  5
10F
330
413
100
AcDbEntity
  8
DATA
  6
Continuous
 62
     7
100
AcDbCircle
 10
-1009.12045
 20
-1377.648326098334
 30
0.0
 40
3.868273855419662
100
AcDbArc
 50
216.0088008457596
 51
275.309143778469
  0
ARC
  5
110
330
413
100
AcDbEntity
  8
DATA
  6
Continuous
 62
     7
100
AcDbCircle
 10
-1010.69518
 20
-1379.118161098334
 30
0.0
 40
1.750200312264771
100
AcDbArc
 50
182.7769954499999
 51
207.3596066671448
  0
CIRCLE
  5
111
330
413
100
AcDbEntity
  8
DATA
  6
Continuous
 62
     7
100
AcDbCircle
 10
-1010.99038
 20
-1373.917001098334
 30
0.0
 40
1.425269999999727
  0
LINE
  5
112
330
413
100
AcDbEntity
  8
DATA
  6
Continuous
 62
     7
100
AcDbLine
 10
-986.6500000000003
 20
-1381.500011098334
 30
0.0
 11
-994.1500000000003
 21
-1381.500011098334
 31
0.0
  0
LINE
  5
113
330
413
100
AcDbEntity
  8
DATA
  6
Continuous
 62
     7
100
AcDbLine
 10
-986.6500000000003
 20
-1381.500011098334
 30
0.0
 11
-986.6500000000003
 21
-1376.795201098334
 31
0.0
  0
LINE
  5
114
330
413
100
AcDbEntity
  8
DATA
  6
Continuous
 62
     7
100
AcDbLine
 10
-986.6500000000003
 20
-1376.795216098334
 30
0.0
 11
-989.1684400000002
 21
-1376.795216098334
 31
0.0
  0
LINE
  5
115
330
413
100
AcDbEntity
  8
DATA
  6
Continuous
 62
     7
100
AcDbLine
 10
-989.1684400000002
 20
-1376.795216098334
 30
0.0
 11
-989.1684400000002
 21
-1379.202956098334
 31
0.0
  0
LINE
  5
116
330
413
100
AcDbEntity
  8
DATA
  6
Continuous
 62
     7
100
AcDbLine
 10
-1003.642600000001
 20
-1381.500011098334
 30
0.0
 11
-998.38432
 21
-1381.499996098334
 31
0.0
  0
LINE
  5
117
330
413
100
AcDbEntity
  8
DATA
  6
Continuous
 62
     7
100
AcDbLine
 10
-1001.12416
 20
-1380.088571098334
 30
0.0
 11
-999.768070000001
 21
-1380.088571098334
 31
0.0
  0
LINE
  5
118
330
413
100
AcDbEntity
  8
DATA
  6
Continuous
 62
     7
100
AcDbLine
 10
-1001.124145000001
 20
-1380.088571098334
 30
0.0
 11
-1001.124145000001
 21
-1374.166061098334
 31
0.0
  0
LINE
  5
119
330
413
100
AcDbEntity
  8
DATA
  6
Continuous
 62
     7
100
AcDbLine
 10
-1001.12416
 20
-1374.166061098334
 30
0.0
 11
-999.768070000001
 21
-1374.166061098334
 31
0.0
  0
LINE
  5
11A
330
413
100
AcDbEntity
  8
DATA
  6
Continuous
 62
     7
100
AcDbLine
 10
-998.38432
 20
-1379.424371098334
 30
0.0
 11
-998.38432
 21
-1374.830261098334
 31
0.0
  0
ARC
  5
11B
330
413
100
AcDbEntity
  8
DATA
  6
Continuous
 62
     7
100
AcDbCircle
 10
-1006.829875
 20
-1379.118161098334
 30
0.0
 40
1.750197821797126
100
AcDbArc
 50
332.6403933328429
 51
357.223004549998
  0
ARC
  5
11C
330
413
100
AcDbEntity
  8
DATA
  6
Continuous
 62
     7
100
AcDbCircle
 10
-990.2148400000003
 20
-1379.235416098334
 30
0.0
 40
1.046893239363371
100
AcDbArc
 50
269.7118487927627
 51
1.775987005688762
  0
ARC
  5
11D
330
413
100
AcDbEntity
  8
DATA
  6
Continuous
 62
     7
100
AcDbCircle
 10
-990.2253700000009
 20
-1379.235416098334
 30
0.0
 40
1.046887886188987
100
AcDbArc
 50
178.2240129943226
 51
270.2881512072897
  0
LINE
  5
11E
330
413
100
AcDbEntity
  8
DATA
  6
Continuous
 62
     7
100
AcDbLine
 10
-995.7274900000001
 20
-1379.092256098334
 30
0.0
 11
-995.7274900000001
 21
-1375.107026098334
 31
0.0
  0
LINE
  5
11F
330
413
100
AcDbEntity
  8
DATA
  6
Continuous
 62
     7
100
AcDbLine
 10
-1001.12416
 20
-1372.726961098334
 30
0.0
 11
-999.768070000001
 21
-1372.726961098334
 31
0.0
  0
ARC
  5
120
330
413
100
AcDbEntity
  8
DATA
  6
Continuous
 62
     7
100
AcDbCircle
 10
-998.5750000000008
 20
-1378.652456098334
 30
0.0
 40
2.853917117577421
100
AcDbArc
 50
273.8309816091269
 51
351.1351473097973
  0
LINE
  5
121
330
413
100
AcDbEntity
  8
DATA
  6
Continuous
 62
     7
100
AcDbLine
 10
-1007.849245
 20
-1366.500026098334
 30
0.0
 11
-1005.081715000001
 21
-1366.500026098334
 31
0.0
  0
LINE
  5
122
330
413
100
AcDbEntity
  8
DATA
  6
Continuous
 62
     7
100
AcDbLine
 10
-1013.35663
 20
-1366.500026098334
 30
0.0
 11
-1008.90091
 21
-1366.500026098334
 31
0.0
  0
LINE
  5
123
330
413
100
AcDbEntity
  8
DATA
  6
Continuous
 62
     7
100
AcDbLine
 10
-994.1500000000003
 20
-1366.500026098334
 30
0.0
 11
-991.2717700000003
 21
-1366.500026098334
 31
0.0
  0
LINE
  5
124
330
413
100
AcDbEntity
  8
DATA
  6
Continuous
 62
     7
100
AcDbLine
 10
-1003.642600000001
 20
-1366.500026098334
 30
0.0
 11
-998.3554148077811
 21
-1366.500038238944
 31
0.0
  0
LINE
  5
125
330
413
100
AcDbEntity
  8
DATA
  6
Continuous
 62
     7
100
AcDbLine
 10
-1001.12416
 20
-1367.911466098334
 30
0.0
 11
-999.768070000001
 21
-1367.911466098334
 31
0.0
  0
ARC
  5
126
330
413
100
AcDbEntity
  8
DATA
  6
Continuous
 62
     7
100
AcDbCircle
 10
-998.5465450000001
 20
-1369.343216098334
 30
0.0
 40
2.849594899366546
100
AcDbArc
 50
8.226923859019004
 51
86.1541266921705
  0
ARC
  5
127
330
413
100
AcDbEntity
  8
DATA
  6
Continuous
 62
     7
100
AcDbCircle
 10
-999.7520568060954
 20
-1377.458039157454
 30
0.0
 40
2.630580680072415
100
AcDbArc
 50
269.6512199376015
 51
282.8264828068661
  0
ARC
  5
128
330
413
100
AcDbEntity
  8
DATA
  6
Continuous
 62
     7
100
AcDbCircle
 10
-999.4566009588007
 20
-1378.570196565175
 30
0.0
 40
1.481156855539759
100
AcDbArc
 50
281.2331036226615
 51
306.8620088940701
  0
ARC
  5
129
330
413
100
AcDbEntity
  8
DATA
  6
Continuous
 62
     7
100
AcDbCircle
 10
-998.8601029546407
 20
-1374.878027166142
 30
0.0
 40
0.4781746722281013
100
AcDbArc
 50
5.732980710565161
 51
52.35809750237875
  0
ARC
  5
12A
330
413
100
AcDbEntity
  8
DATA
  6
Continuous
 62
     7
100
AcDbCircle
 10
-999.7520568060954
 20
-1376.796593039214
 30
0.0
 40
2.630580680072812
100
AcDbArc
 50
77.17351719313606
 51
90.34878006239843
  0
ARC
  5
12B
330
413
100
AcDbEntity
  8
DATA
  6
Continuous
 62
     7
100
AcDbCircle
 10
-999.4566009588007
 20
-1375.684435631493
 30
0.0
 40
1.481156855539906
100
AcDbArc
 50
53.13799110591936
 51
78.76689637733853
  0
ARC
  5
12C
330
413
100
AcDbEntity
  8
DATA
  6
Continuous
 62
     7
100
AcDbCircle
 10
-997.1790100000006
 20
-1375.205141098334
 30
0.0
 40
1.454832245871148
100
AcDbArc
 50
3.867006359811912
 51
88.36163456789938
  0
ARC
  5
12D
330
413
100
AcDbEntity
  8
DATA
  6
Continuous
 62
     7
100
AcDbCircle
 10
-997.1803450000006
 20
-1372.295261098334
 30
0.0
 40
1.45627790992095
100
AcDbArc
 50
271.6892821046696
 51
356.0782829826688
  0
ARC
  5
12E
330
413
100
AcDbEntity
  8
DATA
  6
Continuous
 62
     7
100
AcDbCircle
 10
-998.8601029546407
 20
-1372.014995030525
 30
0.0
 40
0.4781746722280237
100
AcDbArc
 50
307.641902497588
 51
354.2670192894349
  0
ARC
  5
12F
330
413
100
AcDbEntity
  8
DATA
  6
Continuous
 62
     7
100
AcDbCircle
 10
-999.7520568060954
 20
-1370.096429157453
 30
0.0
 40
2.630580680072415
100
AcDbArc
 50
269.6512199376015
 51
282.8264828068661
  0
ARC
  5
130
330
413
100
AcDbEntity
  8
DATA
  6
Continuous
 62
     7
100
AcDbCircle
 10
-999.4566009588007
 20
-1371.208586565175
 30
0.0
 40
1.481156855539759
100
AcDbArc
 50
281.2331036226615
 51
306.8620088940701
  0
ARC
  5
131
330
413
100
AcDbEntity
  8
DATA
  6
Continuous
 62
     7
100
AcDbCircle
 10
-998.8601029546407
 20
-1368.623432166143
 30
0.0
 40
0.4781746722281013
100
AcDbArc
 50
5.732980710565161
 51
52.35809750241202
  0
ARC
  5
132
330
413
100
AcDbEntity
  8
DATA
  6
Continuous
 62
     7
100
AcDbCircle
 10
-999.7520568060954
 20
-1370.541998039214
 30
0.0
 40
2.630580680072368
100
AcDbArc
 50
77.17351719313388
 51
90.3487800623985
  0
ARC
  5
133
330
413
100
AcDbEntity
  8
DATA
  6
Continuous
 62
     7
100
AcDbCircle
 10
-999.4566009588007
 20
-1369.429840631493
 30
0.0
 40
1.48115685554027
100
AcDbArc
 50
53.13799110592992
 51
78.76689637733853
  0
LWPOLYLINE
  5
134
330
413
100
AcDbEntity
  8
DATA
  6
Continuous
 62
     7
100
AcDbPolyline
 90
        4
 70
     1
 43
0.0
 10
-1016.0
 20
-1359.0
 10
-984.0
 20
-1359.0
 10
-984.0
 20
-1391.0
 10
-1016.0
 20
-1391.0
  0
LINE
  5
13B
330
413
100
AcDbEntity
  8
DATA
  6
Continuous
 62
     7
100
AcDbLine
 10
-1601.0
 20
-1484.566025403785
 30
0.0
 11
-399.0
 21
-1484.566025403785
 31
0.0
  0
LINE
  5
13C
330
413
100
AcDbEntity
  8
DATA
  6
Continuous
 62
     7
100
AcDbLine
 10
-1601.0
 20
-1482.566025403785
 30
0.0
 11
-399.0
 21
-1482.566025403785
 31
0.0
  0
CIRCLE
  5
13D
330
413
100
AcDbEntity
  8
DATA
  6
Continuous
 62
     7
100
AcDbCircle
 10
-713.3550104449222
 20
-1469.4
 30
0.0
 40
5.0
  0
CIRCLE
  5
13E
330
413
100
AcDbEntity
  8
DATA
  6
Continuous
 62
     7
100
AcDbCircle
 10
-713.3550104449222
 20
-1469.4
 30
0.0
 40
3.0
  0
LINE
  5
13F
330
413
100
AcDbEntity
  8
DATA
  6
Continuous
 62
     7
100
AcDbLine
 10
-711.8550104449221
 20
-1469.4
 30
0.0
 11
-714.8550104449221
 21
-1469.4
 31
0.0
  0
LINE
  5
140
330
413
100
AcDbEntity
  8
DATA
  6
Continuous
 62
     7
100
AcDbLine
 10
-713.3550104449222
 20
-1470.9
 30
0.0
 11
-713.3550104449222
 21
-1467.9
 31
0.0
  0
CIRCLE
  5
141
330
413
100
AcDbEntity
  8
DATA
  6
Continuous
 62
     7
100
AcDbCircle
 10
-523.2550104449228
 20
-1469.4
 30
0.0
 40
5.0
  0
CIRCLE
  5
142
330
413
100
AcDbEntity
  8
DATA
  6
Continuous
 62
     7
100
AcDbCircle
 10
-523.2550104449228
 20
-1469.4
 30
0.0
 40
3.0
  0
LINE
  5
143
330
413
100
AcDbEntity
  8
DATA
  6
Continuous
 62
     7
100
AcDbLine
 10
-521.7550104449228
 20
-1469.4
 30
0.0
 11
-524.7550104449228
 21
-1469.4
 31
0.0
  0
LINE
  5
144
330
413
100
AcDbEntity
  8
DATA
  6
Continuous
 62
     7
100
AcDbLine
 10
-523.2550104449228
 20
-1470.9
 30
0.0
 11
-523.2550104449228
 21
-1467.9
 31
0.0
  0
CIRCLE
  5
145
330
413
100
AcDbEntity
  8
DATA
  6
Continuous
 62
     7
100
AcDbCircle
 10
-1095.544989555078
 20
-1469.4
 30
0.0
 40
5.0
  0
CIRCLE
  5
146
330
413
100
AcDbEntity
  8
DATA
  6
Continuous
 62
     7
100
AcDbCircle
 10
-1095.544989555078
 20
-1469.4
 30
0.0
 40
3.0
  0
LINE
  5
147
330
413
100
AcDbEntity
  8
DATA
  6
Continuous
 62
     7
100
AcDbLine
 10
-1097.044989555078
 20
-1469.4
 30
0.0
 11
-1094.044989555078
 21
-1469.4
 31
0.0
  0
LINE
  5
148
330
413
100
AcDbEntity
  8
DATA
  6
Continuous
 62
     7
100
AcDbLine
 10
-1095.544989555078
 20
-1470.9
 30
0.0
 11
-1095.544989555078
 21
-1467.9
 31
0.0
  0
CIRCLE
  5
149
330
413
100
AcDbEntity
  8
DATA
  6
Continuous
 62
     7
100
AcDbCircle
 10
-1286.644989555077
 20
-1469.4
 30
0.0
 40
5.0
  0
CIRCLE
  5
14A
330
413
100
AcDbEntity
  8
DATA
  6
Continuous
 62
     7
100
AcDbCircle
 10
-1286.644989555077
 20
-1469.4
 30
0.0
 40
3.0
  0
LINE
  5
14B
330
413
100
AcDbEntity
  8
DATA
  6
Continuous
 62
     7
100
AcDbLine
 10
-1288.144989555077
 20
-1469.4
 30
0.0
 11
-1285.144989555077
 21
-1469.4
 31
0.0
  0
LINE
  5
14C
330
413
100
AcDbEntity
  8
DATA
  6
Continuous
 62
     7
100
AcDbLine
 10
-1286.644989555077
 20
-1470.9
 30
0.0
 11
-1286.644989555077
 21
-1467.9
 31
0.0
  0
CIRCLE
  5
14D
330
413
100
AcDbEntity
  8
DATA
  6
Continuous
 62
     7
100
AcDbCircle
 10
-1476.744989555077
 20
-1469.4
 30
0.0
 40
5.0
  0
CIRCLE
  5
14E
330
413
100
AcDbEntity
  8
DATA
  6
Continuous
 62
     7
100
AcDbCircle
 10
-1476.744989555077
 20
-1469.4
 30
0.0
 40
3.0
  0
LINE
  5
14F
330
413
100
AcDbEntity
  8
DATA
  6
Continuous
 62
     7
100
AcDbLine
 10
-1478.244989555077
 20
-1469.4
 30
0.0
 11
-1475.244989555077
 21
-1469.4
 31
0.0
  0
LINE
  5
150
330
413
100
AcDbEntity
  8
DATA
  6
Continuous
 62
     7
100
AcDbLine
 10
-1476.744989555077
 20
-1470.9
 30
0.0
 11
-1476.744989555077
 21
-1467.9
 31
0.0
  0
CIRCLE
  5
151
330
413
100
AcDbEntity
  8
DATA
  6
Continuous
 62
     7
100
AcDbCircle
 10
-1095.544989555078
 20
-960.5999999999999
 30
0.0
 40
5.0
  0
CIRCLE
  5
152
330
413
100
AcDbEntity
  8
DATA
  6
Continuous
 62
     7
100
AcDbCircle
 10
-1095.544989555078
 20
-960.5999999999999
 30
0.0
 40
3.0
  0
LINE
  5
153
330
413
100
AcDbEntity
  8
DATA
  6
Continuous
 62
     7
100
AcDbLine
 10
-1097.044989555078
 20
-960.5999999999999
 30
0.0
 11
-1094.044989555078
 21
-960.5999999999999
 31
0.0
  0
LINE
  5
154
330
413
100
AcDbEntity
  8
DATA
  6
Continuous
 62
     7
100
AcDbLine
 10
-1095.544989555078
 20
-959.1000000000001
 30
0.0
 11
-1095.544989555078
 21
-962.1
 31
0.0
  0
CIRCLE
  5
155
330
413
100
AcDbEntity
  8
DATA
  6
Continuous
 62
     7
100
AcDbCircle
 10
-1286.644989555077
 20
-960.5999999999999
 30
0.0
 40
5.0
  0
CIRCLE
  5
156
330
413
100
AcDbEntity
  8
DATA
  6
Continuous
 62
     7
100
AcDbCircle
 10
-1286.644989555077
 20
-960.5999999999999
 30
0.0
 40
3.0
  0
LINE
  5
157
330
413
100
AcDbEntity
  8
DATA
  6
Continuous
 62
     7
100
AcDbLine
 10
-1288.144989555077
 20
-960.5999999999999
 30
0.0
 11
-1285.144989555077
 21
-960.5999999999999
 31
0.0
  0
LINE
  5
158
330
413
100
AcDbEntity
  8
DATA
  6
Continuous
 62
     7
100
AcDbLine
 10
-1286.644989555077
 20
-959.1000000000001
 30
0.0
 11
-1286.644989555077
 21
-962.1
 31
0.0
  0
CIRCLE
  5
159
330
413
100
AcDbEntity
  8
DATA
  6
Continuous
 62
     7
100
AcDbCircle
 10
-1476.744989555077
 20
-960.5999999999999
 30
0.0
 40
5.0
  0
CIRCLE
  5
15A
330
413
100
AcDbEntity
  8
DATA
  6
Continuous
 62
     7
100
AcDbCircle
 10
-1476.744989555077
 20
-960.5999999999999
 30
0.0
 40
3.0
  0
LINE
  5
15B
330
413
100
AcDbEntity
  8
DATA
  6
Continuous
 62
     7
100
AcDbLine
 10
-1478.244989555077
 20
-960.5999999999999
 30
0.0
 11
-1475.244989555077
 21
-960.5999999999999
 31
0.0
  0
LINE
  5
15C
330
413
100
AcDbEntity
  8
DATA
  6
Continuous
 62
     7
100
AcDbLine
 10
-1476.744989555077
 20
-959.1000000000001
 30
0.0
 11
-1476.744989555077
 21
-962.1
 31
0.0
  0
CIRCLE
  5
15D
330
413
100
AcDbEntity
  8
DATA
  6
Continuous
 62
     7
100
AcDbCircle
 10
-904.4550104449214
 20
-960.5999999999999
 30
0.0
 40
5.0
  0
CIRCLE
  5
15E
330
413
100
AcDbEntity
  8
DATA
  6
Continuous
 62
     7
100
AcDbCircle
 10
-904.4550104449214
 20
-960.5999999999999
 30
0.0
 40
3.0
  0
LINE
  5
15F
330
413
100
AcDbEntity
  8
DATA
  6
Continuous
 62
     7
100
AcDbLine
 10
-902.9550104449215
 20
-960.5999999999999
 30
0.0
 11
-905.9550104449215
 21
-960.5999999999999
 31
0.0
  0
LINE
  5
160
330
413
100
AcDbEntity
  8
DATA
  6
Continuous
 62
     7
100
AcDbLine
 10
-904.4550104449214
 20
-959.1000000000001
 30
0.0
 11
-904.4550104449214
 21
-962.1
 31
0.0
  0
CIRCLE
  5
161
330
413
100
AcDbEntity
  8
DATA
  6
Continuous
 62
     7
100
AcDbCircle
 10
-713.3550104449222
 20
-960.5999999999999
 30
0.0
 40
5.0
  0
CIRCLE
  5
162
330
413
100
AcDbEntity
  8
DATA
  6
Continuous
 62
     7
100
AcDbCircle
 10
-713.3550104449222
 20
-960.5999999999999
 30
0.0
 40
3.0
  0
LINE
  5
163
330
413
100
AcDbEntity
  8
DATA
  6
Continuous
 62
     7
100
AcDbLine
 10
-711.8550104449221
 20
-960.5999999999999
 30
0.0
 11
-714.8550104449221
 21
-960.5999999999999
 31
0.0
  0
LINE
  5
164
330
413
100
AcDbEntity
  8
DATA
  6
Continuous
 62
     7
100
AcDbLine
 10
-713.3550104449222
 20
-959.1000000000001
 30
0.0
 11
-713.3550104449222
 21
-962.1
 31
0.0
  0
CIRCLE
  5
165
330
413
100
AcDbEntity
  8
DATA
  6
Continuous
 62
     7
100
AcDbCircle
 10
-523.2550104449228
 20
-960.5999999999999
 30
0.0
 40
5.0
  0
CIRCLE
  5
166
330
413
100
AcDbEntity
  8
DATA
  6
Continuous
 62
     7
100
AcDbCircle
 10
-523.2550104449228
 20
-960.5999999999999
 30
0.0
 40
3.0
  0
LINE
  5
167
330
413
100
AcDbEntity
  8
DATA
  6
Continuous
 62
     7
100
AcDbLine
 10
-521.7550104449228
 20
-960.5999999999999
 30
0.0
 11
-524.7550104449228
 21
-960.5999999999999
 31
0.0
  0
LINE
  5
168
330
413
100
AcDbEntity
  8
DATA
  6
Continuous
 62
     7
100
AcDbLine
 10
-523.2550104449228
 20
-959.1000000000001
 30
0.0
 11
-523.2550104449228
 21
-962.1
 31
0.0
  0
LINE
  5
169
330
413
100
AcDbEntity
  8
DATA
  6
Continuous
 62
     7
100
AcDbLine
 10
-1577.5
 20
-1501.81
 30
0.0
 11
-1577.5
 21
-1500.0
 31
0.0
  0
LINE
  5
16A
330
413
100
AcDbEntity
  8
DATA
  6
Continuous
 62
     7
100
AcDbLine
 10
-1540.5
 20
-1501.81
 30
0.0
 11
-1540.5
 21
-1500.0
 31
0.0
  0
LINE
  5
16B
330
413
100
AcDbEntity
  8
DATA
  6
Continuous
 62
     7
100
AcDbLine
 10
-1575.5
 20
-1503.81
 30
0.0
 11
-1542.5
 21
-1503.81
 31
0.0
  0
ARC
  5
16C
330
413
100
AcDbEntity
  8
DATA
  6
Continuous
 62
     7
100
AcDbCircle
 10
-1575.5
 20
-1501.81
 30
0.0
 40
2.0
100
AcDbArc
 50
180.0
 51
270.0
  0
ARC
  5
16D
330
413
100
AcDbEntity
  8
DATA
  6
Continuous
 62
     7
100
AcDbCircle
 10
-1542.5
 20
-1501.81
 30
0.0
 40
2.0
100
AcDbArc
 50
270.0
 51
0.0
  0
LINE
  5
16E
330
413
100
AcDbEntity
  8
DATA
  6
Continuous
 62
     7
100
AcDbLine
 10
-422.4999999999999
 20
-1501.81
 30
0.0
 11
-422.4999999999999
 21
-1500.0
 31
0.0
  0
LINE
  5
16F
330
413
100
AcDbEntity
  8
DATA
  6
Continuous
 62
     7
100
AcDbLine
 10
-459.4999999999999
 20
-1501.81
 30
0.0
 11
-459.4999999999999
 21
-1500.0
 31
0.0
  0
LINE
  5
170
330
413
100
AcDbEntity
  8
DATA
  6
Continuous
 62
     7
100
AcDbLine
 10
-424.5
 20
-1503.81
 30
0.0
 11
-457.5
 21
-1503.81
 31
0.0
  0
ARC
  5
171
330
413
100
AcDbEntity
  8
DATA
  6
Continuous
 62
     7
100
AcDbCircle
 10
-424.5
 20
-1501.81
 30
0.0
 40
2.0
100
AcDbArc
 50
270.0
 51
0.0
  0
ARC
  5
172
330
413
100
AcDbEntity
  8
DATA
  6
Continuous
 62
     7
100
AcDbCircle
 10
-457.5
 20
-1501.81
 30
0.0
 40
2.0
100
AcDbArc
 50
180.0
 51
270.0
  0
LINE
  5
173
330
413
100
AcDbEntity
  8
DATA
  6
Continuous
 62
     7
100
AcDbLine
 10
332.0
 20
-942.5000000000004
 30
0.0
 11
332.0
 21
-1487.5
 31
0.0
  0
LINE
  5
174
330
413
100
AcDbEntity
  8
DATA
  6
Continuous
 62
     7
100
AcDbLine
 10
-337.5
 20
-930.0000000000004
 30
0.0
 11
319.5
 21
-930.0000000000004
 31
0.0
  0
LINE
  5
175
330
413
100
AcDbEntity
  8
DATA
  6
Continuous
 62
     7
100
AcDbLine
 10
-337.5
 20
-1500.000000000001
 30
0.0
 11
319.5
 21
-1500.000000000001
 31
0.0
  0
ARC
  5
176
330
413
100
AcDbEntity
  8
DATA
  6
Continuous
 62
     7
100
AcDbCircle
 10
319.5
 20
-1487.5
 30
0.0
 40
12.5
100
AcDbArc
 50
270.0
 51
0.0
  0
ARC
  5
177
330
413
100
AcDbEntity
  8
DATA
  6
Continuous
 62
     7
100
AcDbCircle
 10
319.5
 20
-942.5000000000004
 30
0.0
 40
12.5
100
AcDbArc
 50
0.0
 51
90.0
  0
LINE
  5
178
330
413
100
AcDbEntity
  8
DATA
  6
Continuous
 62
     7
100
AcDbLine
 10
-350.0
 20
-1484.566025403785
 30
0.0
 11
332.0
 21
-1484.566025403785
 31
0.0
  0
LINE
  5
179
330
413
100
AcDbEntity
  8
DATA
  6
Continuous
 62
     7
100
AcDbLine
 10
319.5
 20
-930.0000000000004
 30
0.0
 11
319.5
 21
-1500.000000000001
 31
0.0
  0
LINE
  5
17A
330
413
100
AcDbEntity
  8
DATA
  6
Continuous
 62
     7
100
AcDbLine
 10
-350.0
 20
-945.4339745962148
 30
0.0
 11
332.0
 21
-945.4339745962148
 31
0.0
  0
LINE
  5
17B
330
413
100
AcDbEntity
  8
DATA
  6
Continuous
 62
     7
100
AcDbLine
 10
-350.0
 20
-942.5000000000004
 30
0.0
 11
-350.0
 21
-945.4339745962148
 31
0.0
  0
ARC
  5
17C
330
413
100
AcDbEntity
  8
DATA
  6
Continuous
 62
     7
100
AcDbCircle
 10
-337.5
 20
-1487.5
 30
0.0
 40
12.5
100
AcDbArc
 50
180.0
 51
270.0
  0
ARC
  5
17D
330
413
100
AcDbEntity
  8
DATA
  6
Continuous
 62
     7
100
AcDbCircle
 10
-337.5
 20
-942.5000000000004
 30
0.0
 40
12.5
100
AcDbArc
 50
90.0
 51
180.0
  0
LINE
  5
17E
330
413
100
AcDbEntity
  8
DATA
  6
Continuous
 62
     7
100
AcDbLine
 10
-347.3000000000001
 20
-947.4339745962147
 30
0.0
 11
-289.3999999999996
 21
-947.4339745962147
 31
0.0
  0
LINE
  5
17F
330
413
100
AcDbEntity
  8
DATA
  6
Continuous
 62
     7
100
AcDbLine
 10
-347.3000000000001
 20
-947.4339745962147
 30
0.0
 11
-347.3000000000001
 21
-1482.566025403785
 31
0.0
  0
LINE
  5
180
330
413
100
AcDbEntity
  8
DATA
  6
Continuous
 62
     7
100
AcDbLine
 10
-345.0
 20
-945.4339745962148
 30
0.0
 11
-345.0
 21
-947.4339745962147
 31
0.0
  0
LINE
  5
181
330
413
100
AcDbEntity
  8
DATA
  6
Continuous
 62
     7
100
AcDbLine
 10
-270.0
 20
-965.6
 30
0.0
 11
-270.0
 21
-1464.4
 31
0.0
  0
ARC
  5
182
330
413
100
AcDbEntity
  8
DATA
  6
Continuous
 62
     7
100
AcDbCircle
 10
-291.0396425853005
 20
-968.6269046446392
 30
0.0
 40
21.25626288520465
100
AcDbArc
 50
8.186782679872907
 51
85.57598556961973
  0
LINE
  5
183
330
413
100
AcDbEntity
  8
DATA
  6
Continuous
 62
     7
100
AcDbLine
 10
-350.0
 20
-1487.5
 30
0.0
 11
-350.0
 21
-1484.566025403785
 31
0.0
  0
LINE
  5
184
330
413
100
AcDbEntity
  8
DATA
  6
Continuous
 62
     7
100
AcDbLine
 10
-347.3000000000001
 20
-1482.566025403785
 30
0.0
 11
-289.3999999999996
 21
-1482.566025403785
 31
0.0
  0
LINE
  5
185
330
413
100
AcDbEntity
  8
DATA
  6
Continuous
 62
     7
100
AcDbLine
 10
-345.0
 20
-1484.566025403785
 30
0.0
 11
-345.0
 21
-1482.566025403785
 31
0.0
  0
ARC
  5
186
330
413
100
AcDbEntity
  8
DATA
  6
Continuous
 62
     7
100
AcDbCircle
 10
-291.0396425853005
 20
-1461.37309535536
 30
0.0
 40
21.25626288520495
100
AcDbArc
 50
274.4240144303803
 51
351.813217320127
  0
LINE
  5
187
330
413
100
AcDbEntity
  8
DATA
  6
Continuous
 62
     7
100
AcDbLine
 10
-302.0
 20
-988.6000000000001
 30
0.0
 11
-302.0
 21
-1441.4
 31
0.0
  0
ARC
  5
188
330
413
100
AcDbEntity
  8
DATA
  6
Continuous
 62
     7
100
AcDbCircle
 10
-286.9832087015575
 20
-1050.441672331758
 30
0.0
 40
63.63879679636842
100
AcDbArc
 50
103.6487563463447
 51
131.7993561255988
  0
ARC
  5
189
330
413
100
AcDbEntity
  8
DATA
  6
Continuous
 62
     7
100
AcDbCircle
 10
-309.1591433379499
 20
-990.9999999999985
 30
0.0
 40
7.550717405207686
100
AcDbArc
 50
18.53298751528823
 51
78.53298751528078
  0
ARC
  5
18A
330
413
100
AcDbEntity
  8
DATA
  6
Continuous
 62
     7
100
AcDbCircle
 10
-315.2290163190273
 20
-1043.808041704837
 30
0.0
 40
60.68218914829108
100
AcDbArc
 50
82.83284317886588
 51
111.6328857924486
  0
ARC
  5
18B
330
413
100
AcDbEntity
  8
DATA
  6
Continuous
 62
     7
100
AcDbCircle
 10
-329.3600000000042
 20
-999.6399999999981
 30
0.0
 40
14.75517536323684
100
AcDbArc
 50
123.9485429733236
 51
172.836452534172
  0
LINE
  5
18C
330
413
100
AcDbEntity
  8
DATA
  6
Continuous
 62
     7
100
AcDbLine
 10
-344.0
 20
-997.8000000000006
 30
0.0
 11
-344.0
 21
-1432.2
 31
0.0
  0
ARC
  5
18D
330
413
100
AcDbEntity
  8
DATA
  6
Continuous
 62
     7
100
AcDbCircle
 10
-341.7277227722816
 20
-1001.90396039604
 30
0.0
 40
12.37635049453949
100
AcDbArc
 50
354.919276099781
 51
50.16684590032281
  0
LINE
  5
18E
330
413
100
AcDbEntity
  8
DATA
  6
Continuous
 62
     7
100
AcDbLine
 10
-333.7999999999992
 20
-992.4000000000003
 30
0.0
 11
-337.5999999999995
 21
-987.4000000000002
 31
0.0
  0
LINE
  5
18F
330
413
100
AcDbEntity
  8
DATA
  6
Continuous
 62
     7
100
AcDbLine
 10
-329.3999999999996
 20
-1003.0
 30
0.0
 11
-329.3999999999996
 21
-1427.0
 31
0.0
  0
LINE
  5
190
330
413
100
AcDbEntity
  8
DATA
  6
Continuous
 62
     7
100
AcDbLine
 10
-322.0
 20
-1020.2
 30
0.0
 11
-321.7999999999992
 21
-1019.4
 31
0.0
  0
ARC
  5
191
330
413
100
AcDbEntity
  8
DATA
  6
Continuous
 62
     7
100
AcDbCircle
 10
-286.9832087015575
 20
-1379.558327668243
 30
0.0
 40
63.63879679636798
100
AcDbArc
 50
228.2006438744012
 51
256.351243653655
  0
ARC
  5
192
330
413
100
AcDbEntity
  8
DATA
  6
Continuous
 62
     7
100
AcDbCircle
 10
-309.1591433379499
 20
-1439.000000000002
 30
0.0
 40
7.550717405207635
100
AcDbArc
 50
281.4670124847205
 51
341.4670124847182
  0
ARC
  5
193
330
413
100
AcDbEntity
  8
DATA
  6
Continuous
 62
     7
100
AcDbCircle
 10
-315.2290163190273
 20
-1386.191958295164
 30
0.0
 40
60.68218914829017
100
AcDbArc
 50
248.3671142075511
 51
277.1671568211342
  0
ARC
  5
194
330
413
100
AcDbEntity
  8
DATA
  6
Continuous
 62
     7
100
AcDbCircle
 10
-329.3600000000042
 20
-1430.360000000003
 30
0.0
 40
14.75517536323668
100
AcDbArc
 50
187.1635474658244
 51
236.0514570266744
  0
ARC
  5
195
330
413
100
AcDbEntity
  8
DATA
  6
Continuous
 62
     7
100
AcDbCircle
 10
-341.7277227722816
 20
-1428.096039603959
 30
0.0
 40
12.37635049453868
100
AcDbArc
 50
309.8331540996772
 51
5.080723900214879
  0
LINE
  5
196
330
413
100
AcDbEntity
  8
DATA
  6
Continuous
 62
     7
100
AcDbLine
 10
-333.7999999999992
 20
-1437.6
 30
0.0
 11
-337.5999999999995
 21
-1442.6
 31
0.0
  0
LINE
  5
197
330
413
100
AcDbEntity
  8
DATA
  6
Continuous
 62
     7
100
AcDbLine
 10
-322.0
 20
-1409.8
 30
0.0
 11
-321.7999999999992
 21
-1410.6
 31
0.0
  0
CIRCLE
  5
198
330
413
100
AcDbEntity
  8
DATA
  6
Continuous
 62
     7
100
AcDbCircle
 10
-276.8999999999997
 20
-969.2000000000001
 30
0.0
 40
5.0
  0
CIRCLE
  5
199
330
413
100
AcDbEntity
  8
DATA
  6
Continuous
 62
     7
100
AcDbCircle
 10
-276.8999999999997
 20
-969.2000000000001
 30
0.0
 40
3.0
  0
LINE
  5
19A
330
413
100
AcDbEntity
  8
DATA
  6
Continuous
 62
     7
100
AcDbLine
 10
-275.3999999999996
 20
-969.2000000000001
 30
0.0
 11
-278.3999999999996
 21
-969.2000000000001
 31
0.0
  0
LINE
  5
19B
330
413
100
AcDbEntity
  8
DATA
  6
Continuous
 62
     7
100
AcDbLine
 10
-276.8999999999997
 20
-967.7000000000001
 30
0.0
 11
-276.8999999999997
 21
-970.7000000000002
 31
0.0
  0
CIRCLE
  5
19C
330
413
100
AcDbEntity
  8
DATA
  6
Continuous
 62
     7
100
AcDbCircle
 10
-276.8999999999997
 20
-1092.5
 30
0.0
 40
5.0
  0
CIRCLE
  5
19D
330
413
100
AcDbEntity
  8
DATA
  6
Continuous
 62
     7
100
AcDbCircle
 10
-276.8999999999997
 20
-1092.5
 30
0.0
 40
3.0
  0
LINE
  5
19E
330
413
100
AcDbEntity
  8
DATA
  6
Continuous
 62
     7
100
AcDbLine
 10
-275.3999999999996
 20
-1092.5
 30
0.0
 11
-278.3999999999996
 21
-1092.5
 31
0.0
  0
LINE
  5
19F
330
413
100
AcDbEntity
  8
DATA
  6
Continuous
 62
     7
100
AcDbLine
 10
-276.8999999999997
 20
-1091.0
 30
0.0
 11
-276.8999999999997
 21
-1094.0
 31
0.0
  0
CIRCLE
  5
1A0
330
413
100
AcDbEntity
  8
DATA
  6
Continuous
 62
     7
100
AcDbCircle
 10
-276.8999999999997
 20
-1215.0
 30
0.0
 40
5.0
  0
CIRCLE
  5
1A1
330
413
100
AcDbEntity
  8
DATA
  6
Continuous
 62
     7
100
AcDbCircle
 10
-276.8999999999997
 20
-1215.0
 30
0.0
 40
3.0
  0
LINE
  5
1A2
330
413
100
AcDbEntity
  8
DATA
  6
Continuous
 62
     7
100
AcDbLine
 10
-275.3999999999996
 20
-1215.0
 30
0.0
 11
-278.3999999999996
 21
-1215.0
 31
0.0
  0
LINE
  5
1A3
330
413
100
AcDbEntity
  8
DATA
  6
Continuous
 62
     7
100
AcDbLine
 10
-276.8999999999997
 20
-1213.5
 30
0.0
 11
-276.8999999999997
 21
-1216.5
 31
0.0
  0
CIRCLE
  5
1A4
330
413
100
AcDbEntity
  8
DATA
  6
Continuous
 62
     7
100
AcDbCircle
 10
-276.8999999999997
 20
-1338.3
 30
0.0
 40
5.0
  0
CIRCLE
  5
1A5
330
413
100
AcDbEntity
  8
DATA
  6
Continuous
 62
     7
100
AcDbCircle
 10
-276.8999999999997
 20
-1338.3
 30
0.0
 40
3.0
  0
LINE
  5
1A6
330
413
100
AcDbEntity
  8
DATA
  6
Continuous
 62
     7
100
AcDbLine
 10
-275.3999999999996
 20
-1338.3
 30
0.0
 11
-278.3999999999996
 21
-1338.3
 31
0.0
  0
LINE
  5
1A7
330
413
100
AcDbEntity
  8
DATA
  6
Continuous
 62
     7
100
AcDbLine
 10
-276.8999999999997
 20
-1336.8
 30
0.0
 11
-276.8999999999997
 21
-1339.8
 31
0.0
  0
CIRCLE
  5
1A8
330
413
100
AcDbEntity
  8
DATA
  6
Continuous
 62
     7
100
AcDbCircle
 10
-276.8999999999997
 20
-1461.3
 30
0.0
 40
5.0
  0
CIRCLE
  5
1A9
330
413
100
AcDbEntity
  8
DATA
  6
Continuous
 62
     7
100
AcDbCircle
 10
-276.8999999999997
 20
-1461.3
 30
0.0
 40
3.0
  0
LINE
  5
1AA
330
413
100
AcDbEntity
  8
DATA
  6
Continuous
 62
     7
100
AcDbLine
 10
-275.3999999999996
 20
-1461.3
 30
0.0
 11
-278.3999999999996
 21
-1461.3
 31
0.0
  0
LINE
  5
1AB
330
413
100
AcDbEntity
  8
DATA
  6
Continuous
 62
     7
100
AcDbLine
 10
-276.8999999999997
 20
-1459.8
 30
0.0
 11
-276.8999999999997
 21
-1462.8
 31
0.0
  0
ARC
  5
1AC
330
413
100
AcDbEntity
  8
DATA
  6
Continuous
 62
     7
100
AcDbCircle
 10
-164.8000000000002
 20
-1706.630559851313
 30
0.0
 40
668.4305598513138
100
AcDbArc
 50
84.75385589582201
 51
95.24614410417802
  0
ARC
  5
1AD
330
413
100
AcDbEntity
  8
DATA
  6
Continuous
 62
     7
100
AcDbCircle
 10
-106.0608964523908
 20
-1062.386006474061
 30
0.0
 40
21.51787423419305
100
AcDbArc
 50
11.21763365060389
 51
83.65357280415649
  0
LINE
  5
1AE
330
413
100
AcDbEntity
  8
DATA
  6
Continuous
 62
     7
100
AcDbLine
 10
-84.95411409795179
 20
-1058.199999999999
 30
0.0
 11
-78.18231732822643
 21
-1174.499999999999
 31
0.0
  0
ARC
  5
1AF
330
413
100
AcDbEntity
  8
DATA
  6
Continuous
 62
     7
100
AcDbCircle
 10
-1148.708179397192
 20
-1161.887931034482
 30
0.0
 40
1070.600152083911
100
AcDbArc
 50
354.4193690154744
 51
359.3250187419533
  0
ARC
  5
1B0
330
413
100
AcDbEntity
  8
DATA
  6
Continuous
 62
     7
100
AcDbCircle
 10
-164.8000000000002
 20
-344.8354479409168
 30
0.0
 40
940.964552059083
100
AcDbArc
 50
266.2636895878152
 51
273.7363104121848
  0
ARC
  5
1B1
330
413
100
AcDbEntity
  8
DATA
  6
Continuous
 62
     7
100
AcDbCircle
 10
-101.5992151197015
 20
-1265.472021058038
 30
0.0
 40
18.42446433481197
100
AcDbArc
 50
264.1337483617066
 51
358.3578840435383
  0
LINE
  5
1B2
330
413
100
AcDbEntity
  8
DATA
  6
Continuous
 62
     7
100
AcDbLine
 10
-116.9176826717739
 20
-1058.0
 30
0.0
 11
-119.246950964457
 21
-1077.1
 31
0.0
  0
ARC
  5
1B3
330
413
100
AcDbEntity
  8
DATA
  6
Continuous
 62
     7
100
AcDbCircle
 10
-164.8000000000002
 20
-1231.112793286229
 30
0.0
 40
179.612793286229
100
AcDbArc
 50
74.53876524041849
 51
105.4612347595815
  0
ARC
  5
1B4
330
413
100
AcDbEntity
  8
DATA
  6
Continuous
 62
     7
100
AcDbCircle
 10
-118.3788678998325
 20
-1072.12610296074
 30
0.0
 40
14.20147341398555
100
AcDbArc
 50
358.4913397795551
 51
84.09440373352442
  0
LINE
  5
1B5
330
413
100
AcDbEntity
  8
DATA
  6
Continuous
 62
     7
100
AcDbLine
 10
-106.6823173282264
 20
-1162.499999999999
 30
0.0
 11
-78.8810409846037
 21
-1162.499999999999
 31
0.0
  0
LINE
  5
1B6
330
413
100
AcDbEntity
  8
DATA
  6
Continuous
 62
     7
100
AcDbLine
 10
-210.3530490355433
 20
-1077.1
 30
0.0
 11
-119.246950964457
 21
-1077.1
 31
0.0
  0
ARC
  5
1B7
330
413
100
AcDbEntity
  8
DATA
  6
Continuous
 62
     7
100
AcDbCircle
 10
-826.0472060222818
 20
-1165.015642703273
 30
0.0
 40
727.7692365537863
100
AcDbArc
 50
0.1980517854490345
 51
7.30332801188839
  0
LINE
  5
1B8
330
413
100
AcDbEntity
  8
DATA
  6
Continuous
 62
     7
100
AcDbLine
 10
-104.1823173282264
 20
-1072.5
 30
0.0
 11
-110.2823173282267
 21
-1091.199999999999
 31
0.0
  0
ARC
  5
1B9
330
413
100
AcDbEntity
  8
DATA
  6
Continuous
 62
     7
100
AcDbCircle
 10
-122.2055387325281
 20
-1088.880849896262
 30
0.0
 40
12.14667303666538
100
AcDbArc
 50
348.9930052337064
 51
75.90254908841995
  0
LINE
  5
1BA
330
413
100
AcDbEntity
  8
DATA
  6
Continuous
 62
     7
100
AcDbLine
 10
-110.2823173282267
 20
-1091.199999999999
 30
0.0
 11
-106.6823173282264
 21
-1162.499999999999
 31
0.0
  0
ARC
  5
1BB
330
413
100
AcDbEntity
  8
DATA
  6
Continuous
 62
     7
100
AcDbCircle
 10
-124.5786080121115
 20
-1163.098649360917
 30
0.0
 40
26.30310409036667
100
AcDbArc
 50
269.338418437693
 51
1.304144317360908
  0
ARC
  5
1BC
330
413
100
AcDbEntity
  8
DATA
  6
Continuous
 62
     7
100
AcDbCircle
 10
-123.8353669385215
 20
-1164.376413460347
 30
0.0
 40
17.25537708679238
100
AcDbArc
 50
266.5215072391695
 51
6.242900154224798
  0
LINE
  5
1BD
330
413
100
AcDbEntity
  8
DATA
  6
Continuous
 62
     7
100
AcDbLine
 10
-119.246950964457
 20
-1077.1
 30
0.0
 11
-116.0983767835277
 21
-1179.799999999999
 31
0.0
  0
CIRCLE
  5
1BE
330
413
100
AcDbEntity
  8
DATA
  6
Continuous
 62
     7
100
AcDbCircle
 10
-88.68231732822643
 20
-1173.4
 30
0.0
 40
2.600000000000363
  0
CIRCLE
  5
1BF
330
413
100
AcDbEntity
  8
DATA
  6
Continuous
 62
     7
100
AcDbCircle
 10
-88.68231732822643
 20
-1173.4
 30
0.0
 40
5.400000000000545
  0
CIRCLE
  5
1C0
330
413
100
AcDbEntity
  8
DATA
  6
Continuous
 62
     7
100
AcDbCircle
 10
-88.68231732822643
 20
-1219.2
 30
0.0
 40
2.600000000000363
  0
CIRCLE
  5
1C1
330
413
100
AcDbEntity
  8
DATA
  6
Continuous
 62
     7
100
AcDbCircle
 10
-88.68231732822643
 20
-1219.2
 30
0.0
 40
5.400000000000545
  0
LINE
  5
1C2
330
413
100
AcDbEntity
  8
DATA
  6
Continuous
 62
     7
100
AcDbLine
 10
-124.8823173282271
 20
-1181.6
 30
0.0
 11
-124.8823173282271
 21
-1211.799999999999
 31
0.0
  0
LINE
  5
1C3
330
413
100
AcDbEntity
  8
DATA
  6
Continuous
 62
     7
100
AcDbLine
 10
-124.8823173282271
 20
-1181.6
 30
0.0
 11
-204.7176826717732
 21
-1181.6
 31
0.0
  0
LINE
  5
1C4
330
413
100
AcDbEntity
  8
DATA
  6
Continuous
 62
     7
100
AcDbLine
 10
-124.8823173282271
 20
-1189.399999999999
 30
0.0
 11
-204.7176826717732
 21
-1189.399999999999
 31
0.0
  0
LINE
  5
1C5
330
413
100
AcDbEntity
  8
DATA
  6
Continuous
 62
     7
100
AcDbLine
 10
-124.8823173282271
 20
-1203.2
 30
0.0
 11
-204.7176826717732
 21
-1203.2
 31
0.0
  0
LINE
  5
1C6
330
413
100
AcDbEntity
  8
DATA
  6
Continuous
 62
     7
100
AcDbLine
 10
-124.8823173282271
 20
-1211.799999999999
 30
0.0
 11
-174.8823173282271
 21
-1211.799999999999
 31
0.0
  0
LINE
  5
1C7
330
413
100
AcDbEntity
  8
DATA
  6
Continuous
 62
     7
100
AcDbLine
 10
-106.6823173282264
 20
-1230.9
 30
0.0
 11
-80.33463986188417
 21
-1230.9
 31
0.0
  0
ARC
  5
1C8
330
413
100
AcDbEntity
  8
DATA
  6
Continuous
 62
     7
100
AcDbCircle
 10
-123.8353669385215
 20
-1229.023586539652
 30
0.0
 40
17.25537708679292
100
AcDbArc
 50
353.7570998457752
 51
93.47849276083051
  0
CIRCLE
  5
1C9
330
413
100
AcDbEntity
  8
DATA
  6
Continuous
 62
     7
100
AcDbCircle
 10
-96.48231732822658
 20
-1270.999999999999
 30
0.0
 40
2.600000000000363
  0
CIRCLE
  5
1CA
330
413
100
AcDbEntity
  8
DATA
  6
Continuous
 62
     7
100
AcDbCircle
 10
-96.48231732822658
 20
-1270.999999999999
 30
0.0
 40
5.400000000000545
  0
CIRCLE
  5
1CB
330
413
100
AcDbEntity
  8
DATA
  6
Continuous
 62
     7
100
AcDbCircle
 10
-100.0823173282269
 20
-1056.399999999999
 30
0.0
 40
2.600000000000363
  0
CIRCLE
  5
1CC
330
413
100
AcDbEntity
  8
DATA
  6
Continuous
 62
     7
100
AcDbCircle
 10
-100.0823173282269
 20
-1056.399999999999
 30
0.0
 40
5.400000000000545
  0
LINE
  5
1CD
330
413
100
AcDbEntity
  8
DATA
  6
Continuous
 62
     7
100
AcDbLine
 10
-211.917682671774
 20
-1271.999999999999
 30
0.0
 11
-117.6823173282264
 21
-1271.999999999999
 31
0.0
  0
LINE
  5
1CE
330
413
100
AcDbEntity
  8
DATA
  6
Continuous
 62
     7
100
AcDbLine
 10
-211.917682671774
 20
-1263.2
 30
0.0
 11
-117.6823173282264
 21
-1263.2
 31
0.0
  0
LINE
  5
1CF
330
413
100
AcDbEntity
  8
DATA
  6
Continuous
 62
     7
100
AcDbLine
 10
-117.6823173282264
 20
-1271.999999999999
 30
0.0
 11
-117.6823173282264
 21
-1263.2
 31
0.0
  0
ARC
  5
1D0
330
413
100
AcDbEntity
  8
DATA
  6
Continuous
 62
     7
100
AcDbCircle
 10
-116.6669299146233
 20
-1256.648854128772
 30
0.0
 40
15.38469015480662
100
AcDbArc
 50
266.2157357466497
 51
0.1819432219060104
  0
LINE
  5
1D1
330
413
100
AcDbEntity
  8
DATA
  6
Continuous
 62
     7
100
AcDbLine
 10
-101.2823173282268
 20
-1256.6
 30
0.0
 11
-99.68231732822642
 21
-1230.9
 31
0.0
  0
ARC
  5
1D2
330
413
100
AcDbEntity
  8
DATA
  6
Continuous
 62
     7
100
AcDbCircle
 10
-124.3788662344368
 20
-1228.054802615037
 30
0.0
 40
24.85990096593799
100
AcDbArc
 50
353.4281394932806
 51
91.160406671989
  0
LINE
  5
1D3
330
413
100
AcDbEntity
  8
DATA
  6
Continuous
 62
     7
100
AcDbLine
 10
-106.6823173282264
 20
-1230.9
 30
0.0
 11
-108.6823173282264
 21
-1254.899999999999
 31
0.0
  0
ARC
  5
1D4
330
413
100
AcDbEntity
  8
DATA
  6
Continuous
 62
     7
100
AcDbCircle
 10
-117.5730593181088
 20
-1254.288954468802
 30
0.0
 40
8.911715310301701
100
AcDbArc
 50
269.2975336988488
 51
356.0683415294115
  0
LINE
  5
1D5
330
413
100
AcDbEntity
  8
DATA
  6
Continuous
 62
     7
100
AcDbLine
 10
-108.6823173282264
 20
-1254.899999999999
 30
0.0
 11
-101.2084599256077
 21
-1255.413665470426
 31
0.0
  0
LINE
  5
1D6
330
413
100
AcDbEntity
  8
DATA
  6
Continuous
 62
     7
100
AcDbLine
 10
-117.6823173282264
 20
-1263.2
 30
0.0
 11
-116.6823173282264
 21
-1213.320659434177
 31
0.0
  0
ARC
  5
1D7
330
413
100
AcDbEntity
  8
DATA
  6
Continuous
 62
     7
100
AcDbCircle
 10
-223.5391035476096
 20
-1062.386006474061
 30
0.0
 40
21.51787423419268
100
AcDbArc
 50
96.34642719584356
 51
168.7823663493961
  0
LINE
  5
1D8
330
413
100
AcDbEntity
  8
DATA
  6
Continuous
 62
     7
100
AcDbLine
 10
-244.6458859020486
 20
-1058.199999999999
 30
0.0
 11
-251.417682671774
 21
-1174.499999999999
 31
0.0
  0
ARC
  5
1D9
330
413
100
AcDbEntity
  8
DATA
  6
Continuous
 62
     7
100
AcDbCircle
 10
819.1081793971898
 20
-1161.887931034482
 30
0.0
 40
1070.600152083909
100
AcDbArc
 50
180.6749812580468
 51
185.5806309845256
  0
ARC
  5
1DA
330
413
100
AcDbEntity
  8
DATA
  6
Continuous
 62
     7
100
AcDbCircle
 10
-228.0007848802989
 20
-1265.472021058038
 30
0.0
 40
18.42446433481297
100
AcDbArc
 50
181.6421159564617
 51
275.8662516382934
  0
LINE
  5
1DB
330
413
100
AcDbEntity
  8
DATA
  6
Continuous
 62
     7
100
AcDbLine
 10
-212.6823173282264
 20
-1058.0
 30
0.0
 11
-210.3530490355433
 21
-1077.1
 31
0.0
  0
ARC
  5
1DC
330
413
100
AcDbEntity
  8
DATA
  6
Continuous
 62
     7
100
AcDbCircle
 10
-211.2211321001677
 20
-1072.12610296074
 30
0.0
 40
14.2014734139854
100
AcDbArc
 50
95.90559626647563
 51
181.5086602204449
  0
LINE
  5
1DD
330
413
100
AcDbEntity
  8
DATA
  6
Continuous
 62
     7
100
AcDbLine
 10
-222.917682671774
 20
-1162.499999999999
 30
0.0
 11
-250.7189590153966
 21
-1162.499999999999
 31
0.0
  0
ARC
  5
1DE
330
413
100
AcDbEntity
  8
DATA
  6
Continuous
 62
     7
100
AcDbCircle
 10
496.4472060222806
 20
-1165.015642703274
 30
0.0
 40
727.7692365537855
100
AcDbArc
 50
172.6966719881116
 51
179.8019482145508
  0
LINE
  5
1DF
330
413
100
AcDbEntity
  8
DATA
  6
Continuous
 62
     7
100
AcDbLine
 10
-225.417682671774
 20
-1072.5
 30
0.0
 11
-219.3176826717736
 21
-1091.199999999999
 31
0.0
  0
ARC
  5
1E0
330
413
100
AcDbEntity
  8
DATA
  6
Continuous
 62
     7
100
AcDbCircle
 10
-207.3944612674723
 20
-1088.880849896262
 30
0.0
 40
12.14667303666487
100
AcDbArc
 50
104.09745091158
 51
191.0069947662936
  0
LINE
  5
1E1
330
413
100
AcDbEntity
  8
DATA
  6
Continuous
 62
     7
100
AcDbLine
 10
-219.3176826717736
 20
-1091.199999999999
 30
0.0
 11
-222.917682671774
 21
-1162.499999999999
 31
0.0
  0
ARC
  5
1E2
330
413
100
AcDbEntity
  8
DATA
  6
Continuous
 62
     7
100
AcDbCircle
 10
-205.0213919878888
 20
-1163.098649360916
 30
0.0
 40
26.30310409036719
100
AcDbArc
 50
178.695855682641
 51
270.6615815623069
  0
ARC
  5
1E3
330
413
100
AcDbEntity
  8
DATA
  6
Continuous
 62
     7
100
AcDbCircle
 10
-205.7646330614789
 20
-1164.376413460347
 30
0.0
 40
17.25537708679292
100
AcDbArc
 50
173.7570998457752
 51
273.4784927608306
  0
LINE
  5
1E4
330
413
100
AcDbEntity
  8
DATA
  6
Continuous
 62
     7
100
AcDbLine
 10
-210.3530490355433
 20
-1077.1
 30
0.0
 11
-213.5016232164725
 21
-1179.799999999999
 31
0.0
  0
CIRCLE
  5
1E5
330
413
100
AcDbEntity
  8
DATA
  6
Continuous
 62
     7
100
AcDbCircle
 10
-240.917682671774
 20
-1173.399999999999
 30
0.0
 40
2.600000000000363
  0
CIRCLE
  5
1E6
330
413
100
AcDbEntity
  8
DATA
  6
Continuous
 62
     7
100
AcDbCircle
 10
-240.917682671774
 20
-1173.399999999999
 30
0.0
 40
5.400000000000545
  0
CIRCLE
  5
1E7
330
413
100
AcDbEntity
  8
DATA
  6
Continuous
 62
     7
100
AcDbCircle
 10
-240.917682671774
 20
-1219.2
 30
0.0
 40
2.600000000000363
  0
CIRCLE
  5
1E8
330
413
100
AcDbEntity
  8
DATA
  6
Continuous
 62
     7
100
AcDbCircle
 10
-240.917682671774
 20
-1219.2
 30
0.0
 40
5.400000000000545
  0
LINE
  5
1E9
330
413
100
AcDbEntity
  8
DATA
  6
Continuous
 62
     7
100
AcDbLine
 10
-204.7176826717732
 20
-1181.6
 30
0.0
 11
-204.7176826717732
 21
-1211.799999999999
 31
0.0
  0
LINE
  5
1EA
330
413
100
AcDbEntity
  8
DATA
  6
Continuous
 62
     7
100
AcDbLine
 10
-204.7176826717732
 20
-1211.799999999999
 30
0.0
 11
-154.7176826717732
 21
-1211.799999999999
 31
0.0
  0
LINE
  5
1EB
330
413
100
AcDbEntity
  8
DATA
  6
Continuous
 62
     7
100
AcDbLine
 10
-222.917682671774
 20
-1230.9
 30
0.0
 11
-249.2653601381161
 21
-1230.9
 31
0.0
  0
ARC
  5
1EC
330
413
100
AcDbEntity
  8
DATA
  6
Continuous
 62
     7
100
AcDbCircle
 10
-205.7646330614789
 20
-1229.023586539652
 30
0.0
 40
17.25537708679238
100
AcDbArc
 50
86.52150723916948
 51
186.2429001542248
  0
CIRCLE
  5
1ED
330
413
100
AcDbEntity
  8
DATA
  6
Continuous
 62
     7
100
AcDbCircle
 10
-233.1176826717737
 20
-1270.999999999999
 30
0.0
 40
2.600000000000363
  0
CIRCLE
  5
1EE
330
413
100
AcDbEntity
  8
DATA
  6
Continuous
 62
     7
100
AcDbCircle
 10
-233.1176826717737
 20
-1270.999999999999
 30
0.0
 40
5.400000000000545
  0
CIRCLE
  5
1EF
330
413
100
AcDbEntity
  8
DATA
  6
Continuous
 62
     7
100
AcDbCircle
 10
-229.5176826717734
 20
-1056.399999999999
 30
0.0
 40
2.600000000000363
  0
CIRCLE
  5
1F0
330
413
100
AcDbEntity
  8
DATA
  6
Continuous
 62
     7
100
AcDbCircle
 10
-229.5176826717734
 20
-1056.399999999999
 30
0.0
 40
5.400000000000545
  0
LINE
  5
1F1
330
413
100
AcDbEntity
  8
DATA
  6
Continuous
 62
     7
100
AcDbLine
 10
-211.917682671774
 20
-1271.999999999999
 30
0.0
 11
-211.917682671774
 21
-1263.2
 31
0.0
  0
ARC
  5
1F2
330
413
100
AcDbEntity
  8
DATA
  6
Continuous
 62
     7
100
AcDbCircle
 10
-212.933070085377
 20
-1256.648854128772
 30
0.0
 40
15.38469015480679
100
AcDbArc
 50
179.818056778094
 51
273.7842642533503
  0
LINE
  5
1F3
330
413
100
AcDbEntity
  8
DATA
  6
Continuous
 62
     7
100
AcDbLine
 10
-228.3176826717736
 20
-1256.6
 30
0.0
 11
-229.917682671774
 21
-1230.9
 31
0.0
  0
ARC
  5
1F4
330
413
100
AcDbEntity
  8
DATA
  6
Continuous
 62
     7
100
AcDbCircle
 10
-205.2211337655635
 20
-1228.054802615037
 30
0.0
 40
24.85990096593932
100
AcDbArc
 50
88.83959332801103
 51
186.5718605067194
  0
LINE
  5
1F5
330
413
100
AcDbEntity
  8
DATA
  6
Continuous
 62
     7
100
AcDbLine
 10
-222.917682671774
 20
-1230.9
 30
0.0
 11
-220.917682671774
 21
-1254.899999999999
 31
0.0
  0
ARC
  5
1F6
330
413
100
AcDbEntity
  8
DATA
  6
Continuous
 62
     7
100
AcDbCircle
 10
-212.0269406818916
 20
-1254.288954468802
 30
0.0
 40
8.911715310301026
100
AcDbArc
 50
183.9316584705885
 51
270.7024663011512
  0
LINE
  5
1F7
330
413
100
AcDbEntity
  8
DATA
  6
Continuous
 62
     7
100
AcDbLine
 10
-220.917682671774
 20
-1254.899999999999
 30
0.0
 11
-228.3915400743926
 21
-1255.413665470426
 31
0.0
  0
LINE
  5
1F8
330
413
100
AcDbEntity
  8
DATA
  6
Continuous
 62
     7
100
AcDbLine
 10
-211.917682671774
 20
-1263.2
 30
0.0
 11
-212.917682671774
 21
-1213.320659434177
 31
0.0
  0
LINE
  5
1F9
330
413
100
AcDbEntity
  8
DATA
  6
Continuous
 62
     7
100
AcDbLine
 10
-93.88231732822623
 20
-1270.999999999999
 30
0.0
 11
-99.08231732822695
 21
-1270.999999999999
 31
0.0
  0
LINE
  5
1FA
330
413
100
AcDbEntity
  8
DATA
  6
Continuous
 62
     7
100
AcDbLine
 10
-96.48231732822658
 20
-1273.6
 30
0.0
 11
-96.48231732822658
 21
-1268.399999999999
 31
0.0
  0
LINE
  5
1FB
330
413
100
AcDbEntity
  8
DATA
  6
Continuous
 62
     7
100
AcDbLine
 10
-230.5176826717734
 20
-1270.999999999999
 30
0.0
 11
-235.7176826717741
 21
-1270.999999999999
 31
0.0
  0
LINE
  5
1FC
330
413
100
AcDbEntity
  8
DATA
  6
Continuous
 62
     7
100
AcDbLine
 10
-233.1176826717737
 20
-1273.6
 30
0.0
 11
-233.1176826717737
 21
-1268.399999999999
 31
0.0
  0
LINE
  5
1FD
330
413
100
AcDbEntity
  8
DATA
  6
Continuous
 62
     7
100
AcDbLine
 10
-238.3176826717736
 20
-1219.2
 30
0.0
 11
-243.5176826717743
 21
-1219.2
 31
0.0
  0
LINE
  5
1FE
330
413
100
AcDbEntity
  8
DATA
  6
Continuous
 62
     7
100
AcDbLine
 10
-240.917682671774
 20
-1221.799999999999
 30
0.0
 11
-240.917682671774
 21
-1216.599999999999
 31
0.0
  0
LINE
  5
1FF
330
413
100
AcDbEntity
  8
DATA
  6
Continuous
 62
     7
100
AcDbLine
 10
-238.3176826717736
 20
-1173.399999999999
 30
0.0
 11
-243.5176826717743
 21
-1173.399999999999
 31
0.0
  0
LINE
  5
200
330
413
100
AcDbEntity
  8
DATA
  6
Continuous
 62
     7
100
AcDbLine
 10
-240.917682671774
 20
-1175.999999999999
 30
0.0
 11
-240.917682671774
 21
-1170.799999999998
 31
0.0
  0
LINE
  5
201
330
413
100
AcDbEntity
  8
DATA
  6
Continuous
 62
     7
100
AcDbLine
 10
-226.9176826717731
 20
-1056.399999999999
 30
0.0
 11
-232.1176826717738
 21
-1056.399999999999
 31
0.0
  0
LINE
  5
202
330
413
100
AcDbEntity
  8
DATA
  6
Continuous
 62
     7
100
AcDbLine
 10
-229.5176826717734
 20
-1059.0
 30
0.0
 11
-229.5176826717734
 21
-1053.799999999998
 31
0.0
  0
LINE
  5
203
330
413
100
AcDbEntity
  8
DATA
  6
Continuous
 62
     7
100
AcDbLine
 10
-97.48231732822659
 20
-1056.399999999999
 30
0.0
 11
-102.6823173282273
 21
-1056.399999999999
 31
0.0
  0
LINE
  5
204
330
413
100
AcDbEntity
  8
DATA
  6
Continuous
 62
     7
100
AcDbLine
 10
-100.0823173282269
 20
-1059.0
 30
0.0
 11
-100.0823173282269
 21
-1053.799999999998
 31
0.0
  0
LINE
  5
205
330
413
100
AcDbEntity
  8
DATA
  6
Continuous
 62
     7
100
AcDbLine
 10
-86.08231732822606
 20
-1173.399999999999
 30
0.0
 11
-91.28231732822678
 21
-1173.399999999999
 31
0.0
  0
LINE
  5
206
330
413
100
AcDbEntity
  8
DATA
  6
Continuous
 62
     7
100
AcDbLine
 10
-88.68231732822643
 20
-1175.999999999999
 30
0.0
 11
-88.68231732822643
 21
-1170.799999999998
 31
0.0
  0
LINE
  5
207
330
413
100
AcDbEntity
  8
DATA
  6
Continuous
 62
     7
100
AcDbLine
 10
-86.08231732822606
 20
-1219.2
 30
0.0
 11
-91.28231732822678
 21
-1219.2
 31
0.0
  0
LINE
  5
208
330
413
100
AcDbEntity
  8
DATA
  6
Continuous
 62
     7
100
AcDbLine
 10
-88.68231732822643
 20
-1221.799999999999
 30
0.0
 11
-88.68231732822643
 21
-1216.599999999999
 31
0.0
  0
ARC
  5
209
330
413
100
AcDbEntity
  8
DATA
  6
Continuous
 62
     7
100
AcDbCircle
 10
221.0
 20
-1706.630559851313
 30
0.0
 40
668.4305598513138
100
AcDbArc
 50
84.75385589582201
 51
95.24614410417802
  0
ARC
  5
20A
330
413
100
AcDbEntity
  8
DATA
  6
Continuous
 62
     7
100
AcDbCircle
 10
279.7391035476094
 20
-1062.386006474061
 30
0.0
 40
21.51787423419305
100
AcDbArc
 50
11.21763365060389
 51
83.65357280415649
  0
LINE
  5
20B
330
413
100
AcDbEntity
  8
DATA
  6
Continuous
 62
     7
100
AcDbLine
 10
300.8458859020484
 20
-1058.199999999999
 30
0.0
 11
307.6176826717738
 21
-1174.499999999999
 31
0.0
  0
ARC
  5
20C
330
413
100
AcDbEntity
  8
DATA
  6
Continuous
 62
     7
100
AcDbCircle
 10
-762.9081793971908
 20
-1161.887931034482
 30
0.0
 40
1070.600152083909
100
AcDbArc
 50
354.4193690154744
 51
359.3250187419533
  0
ARC
  5
20D
330
413
100
AcDbEntity
  8
DATA
  6
Continuous
 62
     7
100
AcDbCircle
 10
221.0
 20
-344.8354479409168
 30
0.0
 40
940.964552059083
100
AcDbArc
 50
266.2636895878152
 51
273.7363104121848
  0
ARC
  5
20E
330
413
100
AcDbEntity
  8
DATA
  6
Continuous
 62
     7
100
AcDbCircle
 10
284.2007848802987
 20
-1265.472021058038
 30
0.0
 40
18.42446433481197
100
AcDbArc
 50
264.1337483617066
 51
358.3578840435383
  0
LINE
  5
20F
330
413
100
AcDbEntity
  8
DATA
  6
Continuous
 62
     7
100
AcDbLine
 10
268.8823173282262
 20
-1058.0
 30
0.0
 11
266.5530490355432
 21
-1077.1
 31
0.0
  0
ARC
  5
210
330
413
100
AcDbEntity
  8
DATA
  6
Continuous
 62
     7
100
AcDbCircle
 10
221.0
 20
-1231.112793286229
 30
0.0
 40
179.612793286229
100
AcDbArc
 50
74.53876524041849
 51
105.4612347595815
  0
ARC
  5
211
330
413
100
AcDbEntity
  8
DATA
  6
Continuous
 62
     7
100
AcDbCircle
 10
267.4211321001676
 20
-1072.12610296074
 30
0.0
 40
14.20147341398555
100
AcDbArc
 50
358.4913397795551
 51
84.09440373352442
  0
LINE
  5
212
330
413
100
AcDbEntity
  8
DATA
  6
Continuous
 62
     7
100
AcDbLine
 10
279.1176826717737
 20
-1162.499999999999
 30
0.0
 11
306.9189590153965
 21
-1162.499999999999
 31
0.0
  0
LINE
  5
213
330
413
100
AcDbEntity
  8
DATA
  6
Continuous
 62
     7
100
AcDbLine
 10
175.4469509644568
 20
-1077.1
 30
0.0
 11
266.5530490355432
 21
-1077.1
 31
0.0
  0
ARC
  5
214
330
413
100
AcDbEntity
  8
DATA
  6
Continuous
 62
     7
100
AcDbCircle
 10
-440.2472060222808
 20
-1165.015642703273
 30
0.0
 40
727.7692365537855
100
AcDbArc
 50
0.1980517854490347
 51
7.303328011888398
  0
LINE
  5
215
330
413
100
AcDbEntity
  8
DATA
  6
Continuous
 62
     7
100
AcDbLine
 10
281.6176826717738
 20
-1072.5
 30
0.0
 11
275.5176826717734
 21
-1091.199999999999
 31
0.0
  0
ARC
  5
216
330
413
100
AcDbEntity
  8
DATA
  6
Continuous
 62
     7
100
AcDbCircle
 10
263.5944612674721
 20
-1088.880849896262
 30
0.0
 40
12.14667303666538
100
AcDbArc
 50
348.9930052337064
 51
75.90254908841995
  0
LINE
  5
217
330
413
100
AcDbEntity
  8
DATA
  6
Continuous
 62
     7
100
AcDbLine
 10
275.5176826717734
 20
-1091.199999999999
 30
0.0
 11
279.1176826717737
 21
-1162.499999999999
 31
0.0
  0
ARC
  5
218
330
413
100
AcDbEntity
  8
DATA
  6
Continuous
 62
     7
100
AcDbCircle
 10
261.2213919878886
 20
-1163.098649360917
 30
0.0
 40
26.30310409036667
100
AcDbArc
 50
269.338418437693
 51
1.304144317360908
  0
ARC
  5
219
330
413
100
AcDbEntity
  8
DATA
  6
Continuous
 62
     7
100
AcDbCircle
 10
261.9646330614787
 20
-1164.376413460347
 30
0.0
 40
17.25537708679238
100
AcDbArc
 50
266.5215072391695
 51
6.242900154224798
  0
LINE
  5
21A
330
413
100
AcDbEntity
  8
DATA
  6
Continuous
 62
     7
100
AcDbLine
 10
266.5530490355432
 20
-1077.1
 30
0.0
 11
269.7016232164724
 21
-1179.799999999999
 31
0.0
  0
CIRCLE
  5
21B
330
413
100
AcDbEntity
  8
DATA
  6
Continuous
 62
     7
100
AcDbCircle
 10
297.1176826717737
 20
-1173.4
 30
0.0
 40
2.600000000000363
  0
CIRCLE
  5
21C
330
413
100
AcDbEntity
  8
DATA
  6
Continuous
 62
     7
100
AcDbCircle
 10
297.1176826717737
 20
-1173.4
 30
0.0
 40
5.400000000000545
  0
CIRCLE
  5
21D
330
413
100
AcDbEntity
  8
DATA
  6
Continuous
 62
     7
100
AcDbCircle
 10
297.1176826717737
 20
-1219.2
 30
0.0
 40
2.600000000000363
  0
CIRCLE
  5
21E
330
413
100
AcDbEntity
  8
DATA
  6
Continuous
 62
     7
100
AcDbCircle
 10
297.1176826717737
 20
-1219.2
 30
0.0
 40
5.400000000000545
  0
LINE
  5
21F
330
413
100
AcDbEntity
  8
DATA
  6
Continuous
 62
     7
100
AcDbLine
 10
260.917682671773
 20
-1181.6
 30
0.0
 11
260.917682671773
 21
-1211.799999999999
 31
0.0
  0
LINE
  5
220
330
413
100
AcDbEntity
  8
DATA
  6
Continuous
 62
     7
100
AcDbLine
 10
260.917682671773
 20
-1181.6
 30
0.0
 11
181.0823173282269
 21
-1181.6
 31
0.0
  0
LINE
  5
221
330
413
100
AcDbEntity
  8
DATA
  6
Continuous
 62
     7
100
AcDbLine
 10
260.917682671773
 20
-1189.399999999999
 30
0.0
 11
181.0823173282269
 21
-1189.399999999999
 31
0.0
  0
LINE
  5
222
330
413
100
AcDbEntity
  8
DATA
  6
Continuous
 62
     7
100
AcDbLine
 10
260.917682671773
 20
-1203.2
 30
0.0
 11
181.0823173282269
 21
-1203.2
 31
0.0
  0
LINE
  5
223
330
413
100
AcDbEntity
  8
DATA
  6
Continuous
 62
     7
100
AcDbLine
 10
260.917682671773
 20
-1211.799999999999
 30
0.0
 11
210.917682671773
 21
-1211.799999999999
 31
0.0
  0
LINE
  5
224
330
413
100
AcDbEntity
  8
DATA
  6
Continuous
 62
     7
100
AcDbLine
 10
279.1176826717737
 20
-1230.9
 30
0.0
 11
305.465360138116
 21
-1230.9
 31
0.0
  0
ARC
  5
225
330
413
100
AcDbEntity
  8
DATA
  6
Continuous
 62
     7
100
AcDbCircle
 10
261.9646330614787
 20
-1229.023586539652
 30
0.0
 40
17.25537708679292
100
AcDbArc
 50
353.7570998457752
 51
93.47849276083051
  0
CIRCLE
  5
226
330
413
100
AcDbEntity
  8
DATA
  6
Continuous
 62
     7
100
AcDbCircle
 10
289.3176826717736
 20
-1270.999999999999
 30
0.0
 40
2.600000000000363
  0
CIRCLE
  5
227
330
413
100
AcDbEntity
  8
DATA
  6
Continuous
 62
     7
100
AcDbCircle
 10
289.3176826717736
 20
-1270.999999999999
 30
0.0
 40
5.400000000000545
  0
CIRCLE
  5
228
330
413
100
AcDbEntity
  8
DATA
  6
Continuous
 62
     7
100
AcDbCircle
 10
285.7176826717731
 20
-1056.399999999999
 30
0.0
 40
2.600000000000363
  0
CIRCLE
  5
229
330
413
100
AcDbEntity
  8
DATA
  6
Continuous
 62
     7
100
AcDbCircle
 10
285.7176826717731
 20
-1056.399999999999
 30
0.0
 40
5.400000000000545
  0
LINE
  5
22A
330
413
100
AcDbEntity
  8
DATA
  6
Continuous
 62
     7
100
AcDbLine
 10
173.8823173282262
 20
-1271.999999999999
 30
0.0
 11
268.1176826717738
 21
-1271.999999999999
 31
0.0
  0
LINE
  5
22B
330
413
100
AcDbEntity
  8
DATA
  6
Continuous
 62
     7
100
AcDbLine
 10
173.8823173282262
 20
-1263.2
 30
0.0
 11
268.1176826717738
 21
-1263.2
 31
0.0
  0
LINE
  5
22C
330
413
100
AcDbEntity
  8
DATA
  6
Continuous
 62
     7
100
AcDbLine
 10
268.1176826717738
 20
-1271.999999999999
 30
0.0
 11
268.1176826717738
 21
-1263.2
 31
0.0
  0
ARC
  5
22D
330
413
100
AcDbEntity
  8
DATA
  6
Continuous
 62
     7
100
AcDbCircle
 10
269.1330700853769
 20
-1256.648854128772
 30
0.0
 40
15.38469015480662
100
AcDbArc
 50
266.2157357466497
 51
0.1819432219060104
  0
LINE
  5
22E
330
413
100
AcDbEntity
  8
DATA
  6
Continuous
 62
     7
100
AcDbLine
 10
284.5176826717734
 20
-1256.6
 30
0.0
 11
286.1176826717738
 21
-1230.9
 31
0.0
  0
ARC
  5
22F
330
413
100
AcDbEntity
  8
DATA
  6
Continuous
 62
     7
100
AcDbCircle
 10
261.4211337655633
 20
-1228.054802615037
 30
0.0
 40
24.85990096593799
100
AcDbArc
 50
353.4281394932806
 51
91.160406671989
  0
LINE
  5
230
330
413
100
AcDbEntity
  8
DATA
  6
Continuous
 62
     7
100
AcDbLine
 10
279.1176826717737
 20
-1230.9
 30
0.0
 11
277.1176826717738
 21
-1254.899999999999
 31
0.0
  0
ARC
  5
231
330
413
100
AcDbEntity
  8
DATA
  6
Continuous
 62
     7
100
AcDbCircle
 10
268.2269406818914
 20
-1254.288954468802
 30
0.0
 40
8.911715310301701
100
AcDbArc
 50
269.2975336988488
 51
356.0683415294115
  0
LINE
  5
232
330
413
100
AcDbEntity
  8
DATA
  6
Continuous
 62
     7
100
AcDbLine
 10
277.1176826717738
 20
-1254.899999999999
 30
0.0
 11
284.5915400743925
 21
-1255.413665470426
 31
0.0
  0
LINE
  5
233
330
413
100
AcDbEntity
  8
DATA
  6
Continuous
 62
     7
100
AcDbLine
 10
268.1176826717738
 20
-1263.2
 30
0.0
 11
269.1176826717738
 21
-1213.320659434177
 31
0.0
  0
ARC
  5
234
330
413
100
AcDbEntity
  8
DATA
  6
Continuous
 62
     7
100
AcDbCircle
 10
162.2608964523906
 20
-1062.386006474061
 30
0.0
 40
21.51787423419268
100
AcDbArc
 50
96.34642719584356
 51
168.7823663493961
  0
LINE
  5
235
330
413
100
AcDbEntity
  8
DATA
  6
Continuous
 62
     7
100
AcDbLine
 10
141.1541140979516
 20
-1058.199999999999
 30
0.0
 11
134.3823173282262
 21
-1174.499999999999
 31
0.0
  0
ARC
  5
236
330
413
100
AcDbEntity
  8
DATA
  6
Continuous
 62
     7
100
AcDbCircle
 10
1204.908179397189
 20
-1161.887931034482
 30
0.0
 40
1070.600152083908
100
AcDbArc
 50
180.6749812580468
 51
185.5806309845256
  0
ARC
  5
237
330
413
100
AcDbEntity
  8
DATA
  6
Continuous
 62
     7
100
AcDbCircle
 10
157.7992151197013
 20
-1265.472021058038
 30
0.0
 40
18.42446433481297
100
AcDbArc
 50
181.6421159564617
 51
275.8662516382934
  0
LINE
  5
238
330
413
100
AcDbEntity
  8
DATA
  6
Continuous
 62
     7
100
AcDbLine
 10
173.1176826717737
 20
-1058.0
 30
0.0
 11
175.4469509644568
 21
-1077.1
 31
0.0
  0
ARC
  5
239
330
413
100
AcDbEntity
  8
DATA
  6
Continuous
 62
     7
100
AcDbCircle
 10
174.5788678998324
 20
-1072.12610296074
 30
0.0
 40
14.2014734139854
100
AcDbArc
 50
95.90559626647563
 51
181.5086602204449
  0
LINE
  5
23A
330
413
100
AcDbEntity
  8
DATA
  6
Continuous
 62
     7
100
AcDbLine
 10
162.8823173282262
 20
-1162.499999999999
 30
0.0
 11
135.0810409846035
 21
-1162.499999999999
 31
0.0
  0
ARC
  5
23B
330
413
100
AcDbEntity
  8
DATA
  6
Continuous
 62
     7
100
AcDbCircle
 10
882.2472060222791
 20
-1165.015642703274
 30
0.0
 40
727.7692365537835
100
AcDbArc
 50
172.6966719881115
 51
179.8019482145508
  0
LINE
  5
23C
330
413
100
AcDbEntity
  8
DATA
  6
Continuous
 62
     7
100
AcDbLine
 10
160.3823173282262
 20
-1072.5
 30
0.0
 11
166.4823173282266
 21
-1091.199999999999
 31
0.0
  0
ARC
  5
23D
330
413
100
AcDbEntity
  8
DATA
  6
Continuous
 62
     7
100
AcDbCircle
 10
178.4055387325279
 20
-1088.880849896262
 30
0.0
 40
12.14667303666487
100
AcDbArc
 50
104.09745091158
 51
191.0069947662936
  0
LINE
  5
23E
330
413
100
AcDbEntity
  8
DATA
  6
Continuous
 62
     7
100
AcDbLine
 10
166.4823173282266
 20
-1091.199999999999
 30
0.0
 11
162.8823173282262
 21
-1162.499999999999
 31
0.0
  0
ARC
  5
23F
330
413
100
AcDbEntity
  8
DATA
  6
Continuous
 62
     7
100
AcDbCircle
 10
180.7786080121113
 20
-1163.098649360916
 30
0.0
 40
26.30310409036719
100
AcDbArc
 50
178.695855682641
 51
270.6615815623069
  0
ARC
  5
240
330
413
100
AcDbEntity
  8
DATA
  6
Continuous
 62
     7
100
AcDbCircle
 10
180.0353669385212
 20
-1164.376413460347
 30
0.0
 40
17.25537708679292
100
AcDbArc
 50
173.7570998457752
 51
273.4784927608306
  0
LINE
  5
241
330
413
100
AcDbEntity
  8
DATA
  6
Continuous
 62
     7
100
AcDbLine
 10
175.4469509644568
 20
-1077.1
 30
0.0
 11
172.2983767835276
 21
-1179.799999999999
 31
0.0
  0
CIRCLE
  5
242
330
413
100
AcDbEntity
  8
DATA
  6
Continuous
 62
     7
100
AcDbCircle
 10
144.8823173282262
 20
-1173.399999999999
 30
0.0
 40
2.600000000000363
  0
CIRCLE
  5
243
330
413
100
AcDbEntity
  8
DATA
  6
Continuous
 62
     7
100
AcDbCircle
 10
144.8823173282262
 20
-1173.399999999999
 30
0.0
 40
5.400000000000545
  0
CIRCLE
  5
244
330
413
100
AcDbEntity
  8
DATA
  6
Continuous
 62
     7
100
AcDbCircle
 10
144.8823173282262
 20
-1219.2
 30
0.0
 40
2.600000000000363
  0
CIRCLE
  5
245
330
413
100
AcDbEntity
  8
DATA
  6
Continuous
 62
     7
100
AcDbCircle
 10
144.8823173282262
 20
-1219.2
 30
0.0
 40
5.400000000000545
  0
LINE
  5
246
330
413
100
AcDbEntity
  8
DATA
  6
Continuous
 62
     7
100
AcDbLine
 10
181.0823173282269
 20
-1181.6
 30
0.0
 11
181.0823173282269
 21
-1211.799999999999
 31
0.0
  0
LINE
  5
247
330
413
100
AcDbEntity
  8
DATA
  6
Continuous
 62
     7
100
AcDbLine
 10
181.0823173282269
 20
-1211.799999999999
 30
0.0
 11
231.0823173282269
 21
-1211.799999999999
 31
0.0
  0
LINE
  5
248
330
413
100
AcDbEntity
  8
DATA
  6
Continuous
 62
     7
100
AcDbLine
 10
162.8823173282262
 20
-1230.9
 30
0.0
 11
136.534639861884
 21
-1230.9
 31
0.0
  0
ARC
  5
249
330
413
100
AcDbEntity
  8
DATA
  6
Continuous
 62
     7
100
AcDbCircle
 10
180.0353669385212
 20
-1229.023586539652
 30
0.0
 40
17.25537708679238
100
AcDbArc
 50
86.52150723916948
 51
186.2429001542248
  0
CIRCLE
  5
24A
330
413
100
AcDbEntity
  8
DATA
  6
Continuous
 62
     7
100
AcDbCircle
 10
152.6823173282264
 20
-1270.999999999999
 30
0.0
 40
2.600000000000363
  0
CIRCLE
  5
24B
330
413
100
AcDbEntity
  8
DATA
  6
Continuous
 62
     7
100
AcDbCircle
 10
152.6823173282264
 20
-1270.999999999999
 30
0.0
 40
5.400000000000545
  0
CIRCLE
  5
24C
330
413
100
AcDbEntity
  8
DATA
  6
Continuous
 62
     7
100
AcDbCircle
 10
156.2823173282268
 20
-1056.399999999999
 30
0.0
 40
2.600000000000363
  0
CIRCLE
  5
24D
330
413
100
AcDbEntity
  8
DATA
  6
Continuous
 62
     7
100
AcDbCircle
 10
156.2823173282268
 20
-1056.399999999999
 30
0.0
 40
5.400000000000545
  0
LINE
  5
24E
330
413
100
AcDbEntity
  8
DATA
  6
Continuous
 62
     7
100
AcDbLine
 10
173.8823173282262
 20
-1271.999999999999
 30
0.0
 11
173.8823173282262
 21
-1263.2
 31
0.0
  0
ARC
  5
24F
330
413
100
AcDbEntity
  8
DATA
  6
Continuous
 62
     7
100
AcDbCircle
 10
172.8669299146231
 20
-1256.648854128772
 30
0.0
 40
15.38469015480679
100
AcDbArc
 50
179.818056778094
 51
273.7842642533503
  0
LINE
  5
250
330
413
100
AcDbEntity
  8
DATA
  6
Continuous
 62
     7
100
AcDbLine
 10
157.4823173282265
 20
-1256.6
 30
0.0
 11
155.8823173282262
 21
-1230.9
 31
0.0
  0
ARC
  5
251
330
413
100
AcDbEntity
  8
DATA
  6
Continuous
 62
     7
100
AcDbCircle
 10
180.5788662344366
 20
-1228.054802615037
 30
0.0
 40
24.85990096593932
100
AcDbArc
 50
88.83959332801103
 51
186.5718605067194
  0
LINE
  5
252
330
413
100
AcDbEntity
  8
DATA
  6
Continuous
 62
     7
100
AcDbLine
 10
162.8823173282262
 20
-1230.9
 30
0.0
 11
164.8823173282262
 21
-1254.899999999999
 31
0.0
  0
ARC
  5
253
330
413
100
AcDbEntity
  8
DATA
  6
Continuous
 62
     7
100
AcDbCircle
 10
173.7730593181086
 20
-1254.288954468802
 30
0.0
 40
8.911715310301026
100
AcDbArc
 50
183.9316584705885
 51
270.7024663011512
  0
LINE
  5
254
330
413
100
AcDbEntity
  8
DATA
  6
Continuous
 62
     7
100
AcDbLine
 10
164.8823173282262
 20
-1254.899999999999
 30
0.0
 11
157.4084599256075
 21
-1255.413665470426
 31
0.0
  0
LINE
  5
255
330
413
100
AcDbEntity
  8
DATA
  6
Continuous
 62
     7
100
AcDbLine
 10
173.8823173282262
 20
-1263.2
 30
0.0
 11
172.8823173282262
 21
-1213.320659434177
 31
0.0
  0
LINE
  5
256
330
413
100
AcDbEntity
  8
DATA
  6
Continuous
 62
     7
100
AcDbLine
 10
291.9176826717739
 20
-1270.999999999999
 30
0.0
 11
286.7176826717732
 21
-1270.999999999999
 31
0.0
  0
LINE
  5
257
330
413
100
AcDbEntity
  8
DATA
  6
Continuous
 62
     7
100
AcDbLine
 10
289.3176826717736
 20
-1273.6
 30
0.0
 11
289.3176826717736
 21
-1268.399999999999
 31
0.0
  0
LINE
  5
258
330
413
100
AcDbEntity
  8
DATA
  6
Continuous
 62
     7
100
AcDbLine
 10
155.2823173282268
 20
-1270.999999999999
 30
0.0
 11
150.082317328226
 21
-1270.999999999999
 31
0.0
  0
LINE
  5
259
330
413
100
AcDbEntity
  8
DATA
  6
Continuous
 62
     7
100
AcDbLine
 10
152.6823173282264
 20
-1273.6
 30
0.0
 11
152.6823173282264
 21
-1268.399999999999
 31
0.0
  0
LINE
  5
25A
330
413
100
AcDbEntity
  8
DATA
  6
Continuous
 62
     7
100
AcDbLine
 10
147.4823173282265
 20
-1219.2
 30
0.0
 11
142.2823173282258
 21
-1219.2
 31
0.0
  0
LINE
  5
25B
330
413
100
AcDbEntity
  8
DATA
  6
Continuous
 62
     7
100
AcDbLine
 10
144.8823173282262
 20
-1221.799999999999
 30
0.0
 11
144.8823173282262
 21
-1216.599999999999
 31
0.0
  0
LINE
  5
25C
330
413
100
AcDbEntity
  8
DATA
  6
Continuous
 62
     7
100
AcDbLine
 10
147.4823173282265
 20
-1173.399999999999
 30
0.0
 11
142.2823173282258
 21
-1173.399999999999
 31
0.0
  0
LINE
  5
25D
330
413
100
AcDbEntity
  8
DATA
  6
Continuous
 62
     7
100
AcDbLine
 10
144.8823173282262
 20
-1175.999999999999
 30
0.0
 11
144.8823173282262
 21
-1170.799999999998
 31
0.0
  0
LINE
  5
25E
330
413
100
AcDbEntity
  8
DATA
  6
Continuous
 62
     7
100
AcDbLine
 10
158.8823173282271
 20
-1056.399999999999
 30
0.0
 11
153.6823173282264
 21
-1056.399999999999
 31
0.0
  0
LINE
  5
25F
330
413
100
AcDbEntity
  8
DATA
  6
Continuous
 62
     7
100
AcDbLine
 10
156.2823173282268
 20
-1059.0
 30
0.0
 11
156.2823173282268
 21
-1053.799999999998
 31
0.0
  0
LINE
  5
260
330
413
100
AcDbEntity
  8
DATA
  6
Continuous
 62
     7
100
AcDbLine
 10
288.3176826717736
 20
-1056.399999999999
 30
0.0
 11
283.1176826717728
 21
-1056.399999999999
 31
0.0
  0
LINE
  5
261
330
413
100
AcDbEntity
  8
DATA
  6
Continuous
 62
     7
100
AcDbLine
 10
285.7176826717731
 20
-1059.0
 30
0.0
 11
285.7176826717731
 21
-1053.799999999998
 31
0.0
  0
LINE
  5
262
330
413
100
AcDbEntity
  8
DATA
  6
Continuous
 62
     7
100
AcDbLine
 10
299.7176826717741
 20
-1173.399999999999
 30
0.0
 11
294.5176826717734
 21
-1173.399999999999
 31
0.0
  0
LINE
  5
263
330
413
100
AcDbEntity
  8
DATA
  6
Continuous
 62
     7
100
AcDbLine
 10
297.1176826717737
 20
-1175.999999999999
 30
0.0
 11
297.1176826717737
 21
-1170.799999999998
 31
0.0
  0
LINE
  5
264
330
413
100
AcDbEntity
  8
DATA
  6
Continuous
 62
     7
100
AcDbLine
 10
299.7176826717741
 20
-1219.2
 30
0.0
 11
294.5176826717734
 21
-1219.2
 31
0.0
  0
LINE
  5
265
330
413
100
AcDbEntity
  8
DATA
  6
Continuous
 62
     7
100
AcDbLine
 10
297.1176826717737
 20
-1221.799999999999
 30
0.0
 11
297.1176826717737
 21
-1216.599999999999
 31
0.0
  0
LINE
  5
266
330
413
100
AcDbEntity
  8
DATA
  6
Continuous
 62
     7
100
AcDbLine
 10
-307.5999999999995
 20
-947.4339745962147
 30
0.0
 11
-307.5999999999995
 21
-945.4339745962148
 31
0.0
  0
ARC
  5
267
330
413
100
AcDbEntity
  8
DATA
  6
Continuous
 62
     7
100
AcDbCircle
 10
-291.4695202831881
 20
-945.6457195752166
 30
0.0
 40
16.13186944624138
100
AcDbArc
 50
104.101882853086
 51
179.2479208892788
  0
LINE
  5
268
330
413
100
AcDbEntity
  8
DATA
  6
Continuous
 62
     7
100
AcDbLine
 10
-307.5999999999995
 20
-1482.566025403785
 30
0.0
 11
-307.5999999999995
 21
-1484.566025403785
 31
0.0
  0
ARC
  5
269
330
413
100
AcDbEntity
  8
DATA
  6
Continuous
 62
     7
100
AcDbCircle
 10
-291.4695202831881
 20
-1484.354280424784
 30
0.0
 40
16.13186944624195
100
AcDbArc
 50
180.7520791107179
 51
255.898117146914
  0
LINE
  5
26A
330
413
100
AcDbEntity
  8
DATA
  6
Continuous
 62
     7
100
AcDbLine
 10
53.85000000000037
 20
-999.5000000000002
 30
0.0
 11
53.85000000000037
 21
-1110.007864376268
 31
0.0
  0
LINE
  5
26B
330
413
100
AcDbEntity
  8
DATA
  6
Continuous
 62
     7
100
AcDbLine
 10
-2.850000000000363
 20
-1008.992135623732
 30
0.0
 11
-2.850000000000363
 21
-1110.007864376268
 31
0.0
  0
LINE
  5
26C
330
413
100
AcDbEntity
  8
DATA
  6
Continuous
 62
     7
100
AcDbLine
 10
15.94213562373442
 20
-990.2000000000001
 30
0.0
 11
35.05786437626557
 21
-990.2000000000001
 31
0.0
  0
LINE
  5
26D
330
413
100
AcDbEntity
  8
DATA
  6
Continuous
 62
     7
100
AcDbLine
 10
0.078932188134786
 20
-1001.921067811865
 30
0.0
 11
8.871067811869579
 21
-993.1289321881337
 31
0.0
  0
ARC
  5
26E
330
413
100
AcDbEntity
  8
DATA
  6
Continuous
 62
     7
100
AcDbCircle
 10
7.149999999999636
 20
-1008.992135623732
 30
0.0
 40
10.0000000000004
100
AcDbArc
 50
134.9999999999926
 51
180.0
  0
ARC
  5
26F
330
413
100
AcDbEntity
  8
DATA
  6
Continuous
 62
     7
100
AcDbCircle
 10
15.94213562373442
 20
-1000.2
 30
0.0
 40
10.0
100
AcDbArc
 50
90.0
 51
134.9999999999926
  0
LINE
  5
270
330
413
100
AcDbEntity
  8
DATA
  6
Continuous
 62
     7
100
AcDbLine
 10
53.85000000000037
 20
-1030.0
 30
0.0
 11
-2.850000000000363
 21
-1030.0
 31
0.0
  0
LINE
  5
271
330
413
100
AcDbEntity
  8
DATA
  6
Continuous
 62
     7
100
AcDbLine
 10
15.28427124746303
 20
-981.0000000000004
 30
0.0
 11
35.71572875253696
 21
-981.0000000000004
 31
0.0
  0
LINE
  5
272
330
413
100
AcDbEntity
  8
DATA
  6
Continuous
 62
     7
100
AcDbLine
 10
-6.742135623728244
 20
-994.7421356237267
 30
0.0
 11
1.142135623735157
 21
-986.8578643762662
 31
0.0
  0
LINE
  5
273
330
413
100
AcDbEntity
  8
DATA
  6
Continuous
 62
     7
100
AcDbLine
 10
-12.59999999999945
 20
-1008.88427124746
 30
0.0
 11
-12.59999999999945
 21
-1110.11572875254
 31
0.0
  0
ARC
  5
274
330
413
100
AcDbEntity
  8
DATA
  6
Continuous
 62
     7
100
AcDbCircle
 10
7.400000000000545
 20
-1008.884271247461
 30
0.0
 40
20.00000000000081
100
AcDbArc
 50
134.9999999999889
 51
179.9999999999973
  0
ARC
  5
275
330
413
100
AcDbEntity
  8
DATA
  6
Continuous
 62
     7
100
AcDbCircle
 10
15.28427124746303
 20
-1001.0
 30
0.0
 40
20.0
100
AcDbArc
 50
90.0
 51
134.9999999999871
  0
LINE
  5
276
330
413
100
AcDbEntity
  8
DATA
  6
Continuous
 62
     7
100
AcDbLine
 10
63.59999999999946
 20
-1008.88427124746
 30
0.0
 11
63.59999999999946
 21
-1110.11572875254
 31
0.0
  0
LINE
  5
277
330
413
100
AcDbEntity
  8
DATA
  6
Continuous
 62
     7
100
AcDbLine
 10
15.94213562373442
 20
-990.2000000000001
 30
0.0
 11
15.28427124746303
 21
-981.0000000000004
 31
0.0
  0
LINE
  5
278
330
413
100
AcDbEntity
  8
DATA
  6
Continuous
 62
     7
100
AcDbLine
 10
8.871067811869579
 20
-993.1289321881337
 30
0.0
 11
1.142135623735157
 21
-986.8578643762662
 31
0.0
  0
LINE
  5
279
330
413
100
AcDbEntity
  8
DATA
  6
Continuous
 62
     7
100
AcDbLine
 10
0.078932188134786
 20
-1001.921067811865
 30
0.0
 11
-6.742135623728244
 21
-994.7421356237267
 31
0.0
  0
LINE
  5
27A
330
413
100
AcDbEntity
  8
DATA
  6
Continuous
 62
     7
100
AcDbLine
 10
-2.850000000000363
 20
-1008.992135623732
 30
0.0
 11
-12.59999999999945
 21
-1008.88427124746
 31
0.0
  0
LINE
  5
27B
330
413
100
AcDbEntity
  8
DATA
  6
Continuous
 62
     7
100
AcDbLine
 10
50.92106781186521
 20
-1001.921067811865
 30
0.0
 11
42.12893218813042
 21
-993.1289321881337
 31
0.0
  0
ARC
  5
27C
330
413
100
AcDbEntity
  8
DATA
  6
Continuous
 62
     7
100
AcDbCircle
 10
43.85000000000037
 20
-1008.992135623732
 30
0.0
 40
10.0
100
AcDbArc
 50
0.0
 51
45.00000000000738
  0
ARC
  5
27D
330
413
100
AcDbEntity
  8
DATA
  6
Continuous
 62
     7
100
AcDbCircle
 10
35.05786437626557
 20
-1000.2
 30
0.0
 40
10.0000000000004
100
AcDbArc
 50
45.00000000000738
 51
90.0
  0
LINE
  5
27E
330
413
100
AcDbEntity
  8
DATA
  6
Continuous
 62
     7
100
AcDbLine
 10
57.74213562372825
 20
-994.7421356237267
 30
0.0
 11
49.85786437626484
 21
-986.8578643762662
 31
0.0
  0
ARC
  5
27F
330
413
100
AcDbEntity
  8
DATA
  6
Continuous
 62
     7
100
AcDbCircle
 10
43.59999999999945
 20
-1008.884271247461
 30
0.0
 40
20.0
100
AcDbArc
 50
0.0000000000026148
 51
45.00000000001109
  0
ARC
  5
280
330
413
100
AcDbEntity
  8
DATA
  6
Continuous
 62
     7
100
AcDbCircle
 10
35.71572875253696
 20
-1001.0
 30
0.0
 40
20.00000000000016
100
AcDbArc
 50
45.0000000000129
 51
90.0
  0
LINE
  5
281
330
413
100
AcDbEntity
  8
DATA
  6
Continuous
 62
     7
100
AcDbLine
 10
35.05786437626557
 20
-990.2000000000001
 30
0.0
 11
35.71572875253696
 21
-981.0000000000004
 31
0.0
  0
LINE
  5
282
330
413
100
AcDbEntity
  8
DATA
  6
Continuous
 62
     7
100
AcDbLine
 10
42.12893218813042
 20
-993.1289321881337
 30
0.0
 11
49.85786437626484
 21
-986.8578643762662
 31
0.0
  0
LINE
  5
283
330
413
100
AcDbEntity
  8
DATA
  6
Continuous
 62
     7
100
AcDbLine
 10
50.92106781186521
 20
-1001.921067811865
 30
0.0
 11
57.74213562372825
 21
-994.7421356237267
 31
0.0
  0
LINE
  5
284
330
413
100
AcDbEntity
  8
DATA
  6
Continuous
 62
     7
100
AcDbLine
 10
53.85000000000037
 20
-1008.992135623732
 30
0.0
 11
63.59999999999946
 21
-1008.88427124746
 31
0.0
  0
LINE
  5
285
330
413
100
AcDbEntity
  8
DATA
  6
Continuous
 62
     7
100
AcDbLine
 10
15.94213562373442
 20
-1128.8
 30
0.0
 11
35.05786437626557
 21
-1128.8
 31
0.0
  0
LINE
  5
286
330
413
100
AcDbEntity
  8
DATA
  6
Continuous
 62
     7
100
AcDbLine
 10
0.078932188134786
 20
-1117.078932188134
 30
0.0
 11
8.871067811869579
 21
-1125.871067811866
 31
0.0
  0
ARC
  5
287
330
413
100
AcDbEntity
  8
DATA
  6
Continuous
 62
     7
100
AcDbCircle
 10
7.149999999999636
 20
-1110.007864376268
 30
0.0
 40
10.0
100
AcDbArc
 50
180.0
 51
225.0000000000037
  0
ARC
  5
288
330
413
100
AcDbEntity
  8
DATA
  6
Continuous
 62
     7
100
AcDbCircle
 10
15.94213562373442
 20
-1118.8
 30
0.0
 40
9.999999999999758
100
AcDbArc
 50
225.0000000000037
 51
270.0
  0
LINE
  5
289
330
413
100
AcDbEntity
  8
DATA
  6
Continuous
 62
     7
100
AcDbLine
 10
53.85000000000037
 20
-1089.0
 30
0.0
 11
-2.850000000000363
 21
-1089.0
 31
0.0
  0
LINE
  5
28A
330
413
100
AcDbEntity
  8
DATA
  6
Continuous
 62
     7
100
AcDbLine
 10
15.28427124746303
 20
-1138.0
 30
0.0
 11
35.71572875253696
 21
-1138.0
 31
0.0
  0
LINE
  5
28B
330
413
100
AcDbEntity
  8
DATA
  6
Continuous
 62
     7
100
AcDbLine
 10
-6.742135623728244
 20
-1124.257864376274
 30
0.0
 11
1.142135623735157
 21
-1132.142135623734
 31
0.0
  0
ARC
  5
28C
330
413
100
AcDbEntity
  8
DATA
  6
Continuous
 62
     7
100
AcDbCircle
 10
7.400000000000545
 20
-1110.11572875254
 30
0.0
 40
20.0
100
AcDbArc
 50
180.0000000000025
 51
225.0000000000111
  0
ARC
  5
28D
330
413
100
AcDbEntity
  8
DATA
  6
Continuous
 62
     7
100
AcDbCircle
 10
15.28427124746303
 20
-1118.0
 30
0.0
 40
19.99999999999952
100
AcDbArc
 50
225.0000000000111
 51
270.0
  0
LINE
  5
28E
330
413
100
AcDbEntity
  8
DATA
  6
Continuous
 62
     7
100
AcDbLine
 10
15.94213562373442
 20
-1128.8
 30
0.0
 11
15.28427124746303
 21
-1138.0
 31
0.0
  0
LINE
  5
28F
330
413
100
AcDbEntity
  8
DATA
  6
Continuous
 62
     7
100
AcDbLine
 10
8.871067811869579
 20
-1125.871067811866
 30
0.0
 11
1.142135623735157
 21
-1132.142135623734
 31
0.0
  0
LINE
  5
290
330
413
100
AcDbEntity
  8
DATA
  6
Continuous
 62
     7
100
AcDbLine
 10
0.078932188134786
 20
-1117.078932188134
 30
0.0
 11
-6.742135623728244
 21
-1124.257864376274
 31
0.0
  0
LINE
  5
291
330
413
100
AcDbEntity
  8
DATA
  6
Continuous
 62
     7
100
AcDbLine
 10
-2.850000000000363
 20
-1110.007864376268
 30
0.0
 11
-12.59999999999945
 21
-1110.11572875254
 31
0.0
  0
LINE
  5
292
330
413
100
AcDbEntity
  8
DATA
  6
Continuous
 62
     7
100
AcDbLine
 10
50.92106781186521
 20
-1117.078932188134
 30
0.0
 11
42.12893218813042
 21
-1125.871067811866
 31
0.0
  0
ARC
  5
293
330
413
100
AcDbEntity
  8
DATA
  6
Continuous
 62
     7
100
AcDbCircle
 10
43.85000000000037
 20
-1110.007864376268
 30
0.0
 40
9.999999999999758
100
AcDbArc
 50
314.9999999999963
 51
0.0
  0
ARC
  5
294
330
413
100
AcDbEntity
  8
DATA
  6
Continuous
 62
     7
100
AcDbCircle
 10
35.05786437626557
 20
-1118.8
 30
0.0
 40
10.0
100
AcDbArc
 50
270.0
 51
314.9999999999963
  0
LINE
  5
295
330
413
100
AcDbEntity
  8
DATA
  6
Continuous
 62
     7
100
AcDbLine
 10
57.74213562372825
 20
-1124.257864376274
 30
0.0
 11
49.85786437626484
 21
-1132.142135623734
 31
0.0
  0
ARC
  5
296
330
413
100
AcDbEntity
  8
DATA
  6
Continuous
 62
     7
100
AcDbCircle
 10
43.59999999999945
 20
-1110.11572875254
 30
0.0
 40
20.00000000000081
100
AcDbArc
 50
314.9999999999888
 51
359.9999999999975
  0
ARC
  5
297
330
413
100
AcDbEntity
  8
DATA
  6
Continuous
 62
     7
100
AcDbCircle
 10
35.71572875253696
 20
-1118.0
 30
0.0
 40
20.0
100
AcDbArc
 50
270.0
 51
314.9999999999888
  0
LINE
  5
298
330
413
100
AcDbEntity
  8
DATA
  6
Continuous
 62
     7
100
AcDbLine
 10
35.05786437626557
 20
-1128.8
 30
0.0
 11
35.71572875253696
 21
-1138.0
 31
0.0
  0
LINE
  5
299
330
413
100
AcDbEntity
  8
DATA
  6
Continuous
 62
     7
100
AcDbLine
 10
42.12893218813042
 20
-1125.871067811866
 30
0.0
 11
49.85786437626484
 21
-1132.142135623734
 31
0.0
  0
LINE
  5
29A
330
413
100
AcDbEntity
  8
DATA
  6
Continuous
 62
     7
100
AcDbLine
 10
50.92106781186521
 20
-1117.078932188134
 30
0.0
 11
57.74213562372825
 21
-1124.257864376274
 31
0.0
  0
LINE
  5
29B
330
413
100
AcDbEntity
  8
DATA
  6
Continuous
 62
     7
100
AcDbLine
 10
53.85000000000037
 20
-1110.007864376268
 30
0.0
 11
63.59999999999946
 21
-1110.11572875254
 31
0.0
  0
LINE
  5
29C
330
413
100
AcDbEntity
  8
DATA
  6
Continuous
 62
     7
100
AcDbLine
 10
53.85000000000037
 20
-1430.500000000001
 30
0.0
 11
53.85000000000037
 21
-1319.992135623732
 31
0.0
  0
LINE
  5
29D
330
413
100
AcDbEntity
  8
DATA
  6
Continuous
 62
     7
100
AcDbLine
 10
-2.850000000000363
 20
-1421.007864376268
 30
0.0
 11
-2.850000000000363
 21
-1319.992135623732
 31
0.0
  0
LINE
  5
29E
330
413
100
AcDbEntity
  8
DATA
  6
Continuous
 62
     7
100
AcDbLine
 10
15.94213562373442
 20
-1439.800000000001
 30
0.0
 11
35.05786437626557
 21
-1439.800000000001
 31
0.0
  0
LINE
  5
29F
330
413
100
AcDbEntity
  8
DATA
  6
Continuous
 62
     7
100
AcDbLine
 10
0.078932188134786
 20
-1428.078932188134
 30
0.0
 11
8.871067811869579
 21
-1436.871067811866
 31
0.0
  0
ARC
  5
2A0
330
413
100
AcDbEntity
  8
DATA
  6
Continuous
 62
     7
100
AcDbCircle
 10
7.149999999999636
 20
-1421.007864376268
 30
0.0
 40
10.0
100
AcDbArc
 50
180.0
 51
225.0000000000037
  0
ARC
  5
2A1
330
413
100
AcDbEntity
  8
DATA
  6
Continuous
 62
     7
100
AcDbCircle
 10
15.94213562373442
 20
-1429.800000000001
 30
0.0
 40
9.999999999999758
100
AcDbArc
 50
225.0000000000037
 51
270.0
  0
LINE
  5
2A2
330
413
100
AcDbEntity
  8
DATA
  6
Continuous
 62
     7
100
AcDbLine
 10
53.85000000000037
 20
-1400.000000000001
 30
0.0
 11
-2.850000000000363
 21
-1400.000000000001
 31
0.0
  0
LINE
  5
2A3
330
413
100
AcDbEntity
  8
DATA
  6
Continuous
 62
     7
100
AcDbLine
 10
15.28427124746303
 20
-1449.0
 30
0.0
 11
35.71572875253696
 21
-1449.0
 31
0.0
  0
LINE
  5
2A4
330
413
100
AcDbEntity
  8
DATA
  6
Continuous
 62
     7
100
AcDbLine
 10
-6.742135623728244
 20
-1435.257864376274
 30
0.0
 11
1.142135623735157
 21
-1443.142135623734
 31
0.0
  0
LINE
  5
2A5
330
413
100
AcDbEntity
  8
DATA
  6
Continuous
 62
     7
100
AcDbLine
 10
-12.59999999999945
 20
-1421.115728752541
 30
0.0
 11
-12.59999999999945
 21
-1319.88427124746
 31
0.0
  0
ARC
  5
2A6
330
413
100
AcDbEntity
  8
DATA
  6
Continuous
 62
     7
100
AcDbCircle
 10
7.400000000000545
 20
-1421.115728752539
 30
0.0
 40
20.0
100
AcDbArc
 50
180.0000000000025
 51
225.0000000000111
  0
ARC
  5
2A7
330
413
100
AcDbEntity
  8
DATA
  6
Continuous
 62
     7
100
AcDbCircle
 10
15.28427124746303
 20
-1429.0
 30
0.0
 40
19.99999999999952
100
AcDbArc
 50
225.0000000000111
 51
270.0
  0
LINE
  5
2A8
330
413
100
AcDbEntity
  8
DATA
  6
Continuous
 62
     7
100
AcDbLine
 10
63.59999999999946
 20
-1421.115728752541
 30
0.0
 11
63.59999999999946
 21
-1319.88427124746
 31
0.0
  0
LINE
  5
2A9
330
413
100
AcDbEntity
  8
DATA
  6
Continuous
 62
     7
100
AcDbLine
 10
15.94213562373442
 20
-1439.800000000001
 30
0.0
 11
15.28427124746303
 21
-1449.0
 31
0.0
  0
LINE
  5
2AA
330
413
100
AcDbEntity
  8
DATA
  6
Continuous
 62
     7
100
AcDbLine
 10
8.871067811869579
 20
-1436.871067811866
 30
0.0
 11
1.142135623735157
 21
-1443.142135623734
 31
0.0
  0
LINE
  5
2AB
330
413
100
AcDbEntity
  8
DATA
  6
Continuous
 62
     7
100
AcDbLine
 10
0.078932188134786
 20
-1428.078932188134
 30
0.0
 11
-6.742135623728244
 21
-1435.257864376274
 31
0.0
  0
LINE
  5
2AC
330
413
100
AcDbEntity
  8
DATA
  6
Continuous
 62
     7
100
AcDbLine
 10
-2.850000000000363
 20
-1421.007864376268
 30
0.0
 11
-12.59999999999945
 21
-1421.115728752541
 31
0.0
  0
LINE
  5
2AD
330
413
100
AcDbEntity
  8
DATA
  6
Continuous
 62
     7
100
AcDbLine
 10
50.92106781186521
 20
-1428.078932188134
 30
0.0
 11
42.12893218813042
 21
-1436.871067811866
 31
0.0
  0
ARC
  5
2AE
330
413
100
AcDbEntity
  8
DATA
  6
Continuous
 62
     7
100
AcDbCircle
 10
43.85000000000037
 20
-1421.007864376268
 30
0.0
 40
9.999999999999758
100
AcDbArc
 50
314.9999999999963
 51
0.0
  0
ARC
  5
2AF
330
413
100
AcDbEntity
  8
DATA
  6
Continuous
 62
     7
100
AcDbCircle
 10
35.05786437626557
 20
-1429.800000000001
 30
0.0
 40
10.0
100
AcDbArc
 50
270.0
 51
314.9999999999963
  0
LINE
  5
2B0
330
413
100
AcDbEntity
  8
DATA
  6
Continuous
 62
     7
100
AcDbLine
 10
57.74213562372825
 20
-1435.257864376274
 30
0.0
 11
49.85786437626484
 21
-1443.142135623734
 31
0.0
  0
ARC
  5
2B1
330
413
100
AcDbEntity
  8
DATA
  6
Continuous
 62
     7
100
AcDbCircle
 10
43.59999999999945
 20
-1421.115728752539
 30
0.0
 40
20.00000000000081
100
AcDbArc
 50
314.9999999999888
 51
359.9999999999975
  0
ARC
  5
2B2
330
413
100
AcDbEntity
  8
DATA
  6
Continuous
 62
     7
100
AcDbCircle
 10
35.71572875253696
 20
-1429.0
 30
0.0
 40
20.0
100
AcDbArc
 50
270.0
 51
314.9999999999888
  0
LINE
  5
2B3
330
413
100
AcDbEntity
  8
DATA
  6
Continuous
 62
     7
100
AcDbLine
 10
35.05786437626557
 20
-1439.800000000001
 30
0.0
 11
35.71572875253696
 21
-1449.0
 31
0.0
  0
LINE
  5
2B4
330
413
100
AcDbEntity
  8
DATA
  6
Continuous
 62
     7
100
AcDbLine
 10
42.12893218813042
 20
-1436.871067811866
 30
0.0
 11
49.85786437626484
 21
-1443.142135623734
 31
0.0
  0
LINE
  5
2B5
330
413
100
AcDbEntity
  8
DATA
  6
Continuous
 62
     7
100
AcDbLine
 10
50.92106781186521
 20
-1428.078932188134
 30
0.0
 11
57.74213562372825
 21
-1435.257864376274
 31
0.0
  0
LINE
  5
2B6
330
413
100
AcDbEntity
  8
DATA
  6
Continuous
 62
     7
100
AcDbLine
 10
53.85000000000037
 20
-1421.007864376268
 30
0.0
 11
63.59999999999946
 21
-1421.115728752541
 31
0.0
  0
LINE
  5
2B7
330
413
100
AcDbEntity
  8
DATA
  6
Continuous
 62
     7
100
AcDbLine
 10
15.94213562373442
 20
-1301.2
 30
0.0
 11
35.05786437626557
 21
-1301.2
 31
0.0
  0
LINE
  5
2B8
330
413
100
AcDbEntity
  8
DATA
  6
Continuous
 62
     7
100
AcDbLine
 10
0.078932188134786
 20
-1312.921067811865
 30
0.0
 11
8.871067811869579
 21
-1304.128932188133
 31
0.0
  0
ARC
  5
2B9
330
413
100
AcDbEntity
  8
DATA
  6
Continuous
 62
     7
100
AcDbCircle
 10
7.149999999999636
 20
-1319.992135623732
 30
0.0
 40
10.0000000000004
100
AcDbArc
 50
134.9999999999926
 51
180.0
  0
ARC
  5
2BA
330
413
100
AcDbEntity
  8
DATA
  6
Continuous
 62
     7
100
AcDbCircle
 10
15.94213562373442
 20
-1311.2
 30
0.0
 40
10.0
100
AcDbArc
 50
90.0
 51
134.9999999999926
  0
LINE
  5
2BB
330
413
100
AcDbEntity
  8
DATA
  6
Continuous
 62
     7
100
AcDbLine
 10
53.85000000000037
 20
-1341.0
 30
0.0
 11
-2.850000000000363
 21
-1341.0
 31
0.0
  0
LINE
  5
2BC
330
413
100
AcDbEntity
  8
DATA
  6
Continuous
 62
     7
100
AcDbLine
 10
15.28427124746303
 20
-1292.0
 30
0.0
 11
35.71572875253696
 21
-1292.0
 31
0.0
  0
LINE
  5
2BD
330
413
100
AcDbEntity
  8
DATA
  6
Continuous
 62
     7
100
AcDbLine
 10
-6.742135623728244
 20
-1305.742135623727
 30
0.0
 11
1.142135623735157
 21
-1297.857864376266
 31
0.0
  0
ARC
  5
2BE
330
413
100
AcDbEntity
  8
DATA
  6
Continuous
 62
     7
100
AcDbCircle
 10
7.400000000000545
 20
-1319.884271247461
 30
0.0
 40
20.00000000000081
100
AcDbArc
 50
134.9999999999889
 51
179.9999999999973
  0
ARC
  5
2BF
330
413
100
AcDbEntity
  8
DATA
  6
Continuous
 62
     7
100
AcDbCircle
 10
15.28427124746303
 20
-1312.0
 30
0.0
 40
20.0
100
AcDbArc
 50
90.0
 51
134.9999999999871
  0
LINE
  5
2C0
330
413
100
AcDbEntity
  8
DATA
  6
Continuous
 62
     7
100
AcDbLine
 10
15.94213562373442
 20
-1301.2
 30
0.0
 11
15.28427124746303
 21
-1292.0
 31
0.0
  0
LINE
  5
2C1
330
413
100
AcDbEntity
  8
DATA
  6
Continuous
 62
     7
100
AcDbLine
 10
8.871067811869579
 20
-1304.128932188133
 30
0.0
 11
1.142135623735157
 21
-1297.857864376266
 31
0.0
  0
LINE
  5
2C2
330
413
100
AcDbEntity
  8
DATA
  6
Continuous
 62
     7
100
AcDbLine
 10
0.078932188134786
 20
-1312.921067811865
 30
0.0
 11
-6.742135623728244
 21
-1305.742135623727
 31
0.0
  0
LINE
  5
2C3
330
413
100
AcDbEntity
  8
DATA
  6
Continuous
 62
     7
100
AcDbLine
 10
-2.850000000000363
 20
-1319.992135623732
 30
0.0
 11
-12.59999999999945
 21
-1319.88427124746
 31
0.0
  0
LINE
  5
2C4
330
413
100
AcDbEntity
  8
DATA
  6
Continuous
 62
     7
100
AcDbLine
 10
50.92106781186521
 20
-1312.921067811865
 30
0.0
 11
42.12893218813042
 21
-1304.128932188133
 31
0.0
  0
ARC
  5
2C5
330
413
100
AcDbEntity
  8
DATA
  6
Continuous
 62
     7
100
AcDbCircle
 10
43.85000000000037
 20
-1319.992135623732
 30
0.0
 40
10.0
100
AcDbArc
 50
0.0
 51
45.00000000000738
  0
ARC
  5
2C6
330
413
100
AcDbEntity
  8
DATA
  6
Continuous
 62
     7
100
AcDbCircle
 10
35.05786437626557
 20
-1311.2
 30
0.0
 40
10.0000000000004
100
AcDbArc
 50
45.00000000000738
 51
90.0
  0
LINE
  5
2C7
330
413
100
AcDbEntity
  8
DATA
  6
Continuous
 62
     7
100
AcDbLine
 10
57.74213562372825
 20
-1305.742135623727
 30
0.0
 11
49.85786437626484
 21
-1297.857864376266
 31
0.0
  0
ARC
  5
2C8
330
413
100
AcDbEntity
  8
DATA
  6
Continuous
 62
     7
100
AcDbCircle
 10
43.59999999999945
 20
-1319.884271247461
 30
0.0
 40
20.0
100
AcDbArc
 50
0.0000000000026148
 51
45.00000000001109
  0
ARC
  5
2C9
330
413
100
AcDbEntity
  8
DATA
  6
Continuous
 62
     7
100
AcDbCircle
 10
35.71572875253696
 20
-1312.0
 30
0.0
 40
20.00000000000016
100
AcDbArc
 50
45.0000000000129
 51
90.0
  0
LINE
  5
2CA
330
413
100
AcDbEntity
  8
DATA
  6
Continuous
 62
     7
100
AcDbLine
 10
35.05786437626557
 20
-1301.2
 30
0.0
 11
35.71572875253696
 21
-1292.0
 31
0.0
  0
LINE
  5
2CB
330
413
100
AcDbEntity
  8
DATA
  6
Continuous
 62
     7
100
AcDbLine
 10
42.12893218813042
 20
-1304.128932188133
 30
0.0
 11
49.85786437626484
 21
-1297.857864376266
 31
0.0
  0
LINE
  5
2CC
330
413
100
AcDbEntity
  8
DATA
  6
Continuous
 62
     7
100
AcDbLine
 10
50.92106781186521
 20
-1312.921067811865
 30
0.0
 11
57.74213562372825
 21
-1305.742135623727
 31
0.0
  0
LINE
  5
2CD
330
413
100
AcDbEntity
  8
DATA
  6
Continuous
 62
     7
100
AcDbLine
 10
53.85000000000037
 20
-1319.992135623732
 30
0.0
 11
63.59999999999946
 21
-1319.88427124746
 31
0.0
  0
LINE
  5
2CE
330
413
100
AcDbEntity
  8
DATA
  6
Continuous
 62
     7
100
AcDbLine
 10
-248.5999999999985
 20
-1501.81
 30
0.0
 11
-248.5999999999985
 21
-1500.000000000001
 31
0.0
  0
LINE
  5
2CF
330
413
100
AcDbEntity
  8
DATA
  6
Continuous
 62
     7
100
AcDbLine
 10
-285.5999999999985
 20
-1501.81
 30
0.0
 11
-285.5999999999985
 21
-1500.000000000001
 31
0.0
  0
LINE
  5
2D0
330
413
100
AcDbEntity
  8
DATA
  6
Continuous
 62
     7
100
AcDbLine
 10
-250.5999999999985
 20
-1503.81
 30
0.0
 11
-283.5999999999985
 21
-1503.81
 31
0.0
  0
ARC
  5
2D1
330
413
100
AcDbEntity
  8
DATA
  6
Continuous
 62
     7
100
AcDbCircle
 10
-250.5999999999985
 20
-1501.81
 30
0.0
 40
2.0
100
AcDbArc
 50
270.0
 51
0.0
  0
ARC
  5
2D2
330
413
100
AcDbEntity
  8
DATA
  6
Continuous
 62
     7
100
AcDbCircle
 10
-283.5999999999985
 20
-1501.81
 30
0.0
 40
2.0
100
AcDbArc
 50
180.0
 51
270.0
  0
LINE
  5
2D3
330
413
100
AcDbEntity
  8
DATA
  6
Continuous
 62
     7
100
AcDbLine
 10
270.3999999999997
 20
-1501.81
 30
0.0
 11
270.3999999999997
 21
-1500.000000000001
 31
0.0
  0
LINE
  5
2D4
330
413
100
AcDbEntity
  8
DATA
  6
Continuous
 62
     7
100
AcDbLine
 10
307.3999999999996
 20
-1501.81
 30
0.0
 11
307.3999999999996
 21
-1500.000000000001
 31
0.0
  0
LINE
  5
2D5
330
413
100
AcDbEntity
  8
DATA
  6
Continuous
 62
     7
100
AcDbLine
 10
272.3999999999996
 20
-1503.81
 30
0.0
 11
305.3999999999996
 21
-1503.81
 31
0.0
  0
ARC
  5
2D6
330
413
100
AcDbEntity
  8
DATA
  6
Continuous
 62
     7
100
AcDbCircle
 10
272.3999999999996
 20
-1501.81
 30
0.0
 40
2.0
100
AcDbArc
 50
180.0
 51
270.0
  0
ARC
  5
2D7
330
413
100
AcDbEntity
  8
DATA
  6
Continuous
 62
     7
100
AcDbCircle
 10
305.3999999999996
 20
-1501.81
 30
0.0
 40
2.0
100
AcDbArc
 50
270.0
 51
0.0
  0
LINE
  5
2D8
330
413
100
AcDbEntity
  8
DATA
  6
Continuous
 62
     7
100
AcDbLine
 10
-307.5999999999995
 20
-947.4339745962147
 30
0.0
 11
-307.6580326380554
 21
-983.6
 31
0.0
  0
LINE
  5
2D9
330
413
100
AcDbEntity
  8
DATA
  6
Continuous
 62
     7
100
AcDbLine
 10
-307.5999999999995
 20
-1482.566025403785
 30
0.0
 11
-307.6580326380554
 21
-1446.4
 31
0.0
  0
ARC
  5
2DA
330
413
100
AcDbEntity
  8
DATA
  6
Continuous
 62
     7
100
AcDbCircle
 10
325.122030845977
 20
-994.5244607765955
 30
0.0
 40
11.0903768954746
100
AcDbArc
 50
308.3288798781323
 51
51.6711201218647
  0
ARC
  5
2DB
330
413
100
AcDbEntity
  8
DATA
  6
Continuous
 62
     7
100
AcDbCircle
 10
325.122030845977
 20
-1054.475539223405
 30
0.0
 40
11.0903768954746
100
AcDbArc
 50
308.3288798781323
 51
51.6711201218676
  0
ARC
  5
2DC
330
413
100
AcDbEntity
  8
DATA
  6
Continuous
 62
     7
100
AcDbCircle
 10
325.122030845977
 20
-1435.475539223405
 30
0.0
 40
11.0903768954746
100
AcDbArc
 50
308.3288798781323
 51
51.6711201218676
  0
ARC
  5
2DD
330
413
100
AcDbEntity
  8
DATA
  6
Continuous
 62
     7
100
AcDbCircle
 10
325.122030845977
 20
-1375.524460776596
 30
0.0
 40
11.0903768954746
100
AcDbArc
 50
308.3288798781323
 51
51.6711201218647
  0
LINE
  5
2DE
330
413
100
AcDbEntity
  8
DATA
  6
Continuous
 62
     7
100
AcDbLine
 10
399.0
 20
-942.5
 30
0.0
 11
399.0
 21
-1487.5
 31
0.0
  0
LINE
  5
2DF
330
413
100
AcDbEntity
  8
DATA
  6
Continuous
 62
     7
100
AcDbLine
 10
1588.5
 20
-930.0
 30
0.0
 11
410.5
 21
-930.0
 31
0.0
  0
LINE
  5
2E0
330
413
100
AcDbEntity
  8
DATA
  6
Continuous
 62
     7
100
AcDbLine
 10
1588.5
 20
-1500.0
 30
0.0
 11
411.5
 21
-1500.0
 31
0.0
  0
ARC
  5
2E1
330
413
100
AcDbEntity
  8
DATA
  6
Continuous
 62
     7
100
AcDbCircle
 10
411.5
 20
-1487.5
 30
0.0
 40
12.5
100
AcDbArc
 50
180.0
 51
270.0
  0
ARC
  5
2E2
330
413
100
AcDbEntity
  8
DATA
  6
Continuous
 62
     7
100
AcDbCircle
 10
411.5
 20
-942.5
 30
0.0
 40
12.5
100
AcDbArc
 50
90.0
 51
180.0
  0
LINE
  5
2E3
330
413
100
AcDbEntity
  8
DATA
  6
Continuous
 62
     7
100
AcDbLine
 10
1601.0
 20
-945.4339745962144
 30
0.0
 11
398.0
 21
-945.4339745962144
 31
0.0
  0
LINE
  5
2E4
330
413
100
AcDbEntity
  8
DATA
  6
Continuous
 62
     7
100
AcDbLine
 10
411.5
 20
-930.0
 30
0.0
 11
411.5
 21
-1500.0
 31
0.0
  0
LINE
  5
2E5
330
413
100
AcDbEntity
  8
DATA
  6
Continuous
 62
     7
100
AcDbLine
 10
1601.0
 20
-942.5
 30
0.0
 11
1601.0
 21
-1487.5
 31
0.0
  0
ARC
  5
2E6
330
413
100
AcDbEntity
  8
DATA
  6
Continuous
 62
     7
100
AcDbCircle
 10
1588.5
 20
-1487.5
 30
0.0
 40
12.5
100
AcDbArc
 50
270.0
 51
0.0
  0
ARC
  5
2E7
330
413
100
AcDbEntity
  8
DATA
  6
Continuous
 62
     7
100
AcDbCircle
 10
1588.5
 20
-942.5
 30
0.0
 40
12.5
100
AcDbArc
 50
0.0
 51
90.0
  0
LINE
  5
2E8
330
413
100
AcDbEntity
  8
DATA
  6
Continuous
 62
     7
100
AcDbLine
 10
1601.0
 20
-1484.566025403785
 30
0.0
 11
399.0
 21
-1484.566025403785
 31
0.0
  0
LINE
  5
2E9
330
413
100
AcDbEntity
  8
DATA
  6
Continuous
 62
     7
100
AcDbLine
 10
1577.5
 20
-1501.809999999999
 30
0.0
 11
1577.5
 21
-1500.0
 31
0.0
  0
LINE
  5
2EA
330
413
100
AcDbEntity
  8
DATA
  6
Continuous
 62
     7
100
AcDbLine
 10
1540.5
 20
-1501.809999999999
 30
0.0
 11
1540.5
 21
-1500.0
 31
0.0
  0
LINE
  5
2EB
330
413
100
AcDbEntity
  8
DATA
  6
Continuous
 62
     7
100
AcDbLine
 10
1575.5
 20
-1503.809999999999
 30
0.0
 11
1542.5
 21
-1503.809999999999
 31
0.0
  0
ARC
  5
2EC
330
413
100
AcDbEntity
  8
DATA
  6
Continuous
 62
     7
100
AcDbCircle
 10
1575.5
 20
-1501.809999999999
 30
0.0
 40
2.0
100
AcDbArc
 50
270.0
 51
0.0
  0
ARC
  5
2ED
330
413
100
AcDbEntity
  8
DATA
  6
Continuous
 62
     7
100
AcDbCircle
 10
1542.5
 20
-1501.809999999999
 30
0.0
 40
2.0
100
AcDbArc
 50
180.0
 51
270.0
  0
LINE
  5
2EE
330
413
100
AcDbEntity
  8
DATA
  6
Continuous
 62
     7
100
AcDbLine
 10
422.4999999999999
 20
-1501.809999999999
 30
0.0
 11
422.4999999999999
 21
-1500.0
 31
0.0
  0
LINE
  5
2EF
330
413
100
AcDbEntity
  8
DATA
  6
Continuous
 62
     7
100
AcDbLine
 10
459.4999999999999
 20
-1501.809999999999
 30
0.0
 11
459.4999999999999
 21
-1500.0
 31
0.0
  0
LINE
  5
2F0
330
413
100
AcDbEntity
  8
DATA
  6
Continuous
 62
     7
100
AcDbLine
 10
424.5
 20
-1503.809999999999
 30
0.0
 11
457.5
 21
-1503.809999999999
 31
0.0
  0
ARC
  5
2F1
330
413
100
AcDbEntity
  8
DATA
  6
Continuous
 62
     7
100
AcDbCircle
 10
424.5
 20
-1501.809999999999
 30
0.0
 40
2.0
100
AcDbArc
 50
180.0
 51
270.0
  0
ARC
  5
2F2
330
413
100
AcDbEntity
  8
DATA
  6
Continuous
 62
     7
100
AcDbCircle
 10
457.5
 20
-1501.809999999999
 30
0.0
 40
2.0
100
AcDbArc
 50
270.0
 51
0.0
  0
LINE
  5
2F3
330
413
100
AcDbEntity
  8
DATA
  6
Continuous
 62
     7
100
AcDbLine
 10
1588.5
 20
-930.0
 30
0.0
 11
1588.5
 21
-1500.0
 31
0.0
  0
CIRCLE
  5
2F4
330
413
100
AcDbEntity
  8
DATA
  6
Continuous
 62
     7
100
AcDbCircle
 10
451.4999999999997
 20
-1436.0
 30
0.0
 40
8.699999999999818
  0
LINE
  5
2F5
330
413
100
AcDbEntity
  8
DATA
  6
Continuous
 62
     7
100
AcDbLine
 10
447.1500000000003
 20
-1436.0
 30
0.0
 11
455.8500000000001
 21
-1436.0
 31
0.0
  0
LINE
  5
2F6
330
413
100
AcDbEntity
  8
DATA
  6
Continuous
 62
     7
100
AcDbLine
 10
451.4999999999997
 20
-1431.65
 30
0.0
 11
451.4999999999997
 21
-1440.349999999999
 31
0.0
  0
CIRCLE
  5
2F7
330
413
100
AcDbEntity
  8
DATA
  6
Continuous
 62
     7
100
AcDbCircle
 10
532.5000000000001
 20
-1436.0
 30
0.0
 40
8.699999999999818
  0
LINE
  5
2F8
330
413
100
AcDbEntity
  8
DATA
  6
Continuous
 62
     7
100
AcDbLine
 10
528.1500000000009
 20
-1436.0
 30
0.0
 11
536.8500000000004
 21
-1436.0
 31
0.0
  0
LINE
  5
2F9
330
413
100
AcDbEntity
  8
DATA
  6
Continuous
 62
     7
100
AcDbLine
 10
532.5000000000001
 20
-1431.65
 30
0.0
 11
532.5000000000001
 21
-1440.349999999999
 31
0.0
  0
CIRCLE
  5
2FA
330
413
100
AcDbEntity
  8
DATA
  6
Continuous
 62
     7
100
AcDbCircle
 10
451.4999999999997
 20
-1375.0
 30
0.0
 40
8.699999999999818
  0
LINE
  5
2FB
330
413
100
AcDbEntity
  8
DATA
  6
Continuous
 62
     7
100
AcDbLine
 10
447.1500000000003
 20
-1375.0
 30
0.0
 11
455.8500000000001
 21
-1375.0
 31
0.0
  0
LINE
  5
2FC
330
413
100
AcDbEntity
  8
DATA
  6
Continuous
 62
     7
100
AcDbLine
 10
451.4999999999997
 20
-1370.65
 30
0.0
 11
451.4999999999997
 21
-1379.349999999999
 31
0.0
  0
CIRCLE
  5
2FD
330
413
100
AcDbEntity
  8
DATA
  6
Continuous
 62
     7
100
AcDbCircle
 10
532.5000000000001
 20
-1375.0
 30
0.0
 40
8.699999999999818
  0
LINE
  5
2FE
330
413
100
AcDbEntity
  8
DATA
  6
Continuous
 62
     7
100
AcDbLine
 10
528.1500000000009
 20
-1375.0
 30
0.0
 11
536.8500000000004
 21
-1375.0
 31
0.0
  0
LINE
  5
2FF
330
413
100
AcDbEntity
  8
DATA
  6
Continuous
 62
     7
100
AcDbLine
 10
532.5000000000001
 20
-1370.65
 30
0.0
 11
532.5000000000001
 21
-1379.349999999999
 31
0.0
  0
CIRCLE
  5
300
330
413
100
AcDbEntity
  8
DATA
  6
Continuous
 62
     7
100
AcDbCircle
 10
451.4999999999997
 20
-994.0
 30
0.0
 40
8.699999999999818
  0
LINE
  5
301
330
413
100
AcDbEntity
  8
DATA
  6
Continuous
 62
     7
100
AcDbLine
 10
447.1500000000003
 20
-994.0
 30
0.0
 11
455.8500000000001
 21
-994.0
 31
0.0
  0
LINE
  5
302
330
413
100
AcDbEntity
  8
DATA
  6
Continuous
 62
     7
100
AcDbLine
 10
451.4999999999997
 20
-998.3499999999994
 30
0.0
 11
451.4999999999997
 21
-989.6500000000003
 31
0.0
  0
CIRCLE
  5
303
330
413
100
AcDbEntity
  8
DATA
  6
Continuous
 62
     7
100
AcDbCircle
 10
532.5000000000001
 20
-994.0
 30
0.0
 40
8.699999999999818
  0
LINE
  5
304
330
413
100
AcDbEntity
  8
DATA
  6
Continuous
 62
     7
100
AcDbLine
 10
528.1500000000009
 20
-994.0
 30
0.0
 11
536.8500000000004
 21
-994.0
 31
0.0
  0
LINE
  5
305
330
413
100
AcDbEntity
  8
DATA
  6
Continuous
 62
     7
100
AcDbLine
 10
532.5000000000001
 20
-998.3499999999994
 30
0.0
 11
532.5000000000001
 21
-989.6500000000003
 31
0.0
  0
CIRCLE
  5
306
330
413
100
AcDbEntity
  8
DATA
  6
Continuous
 62
     7
100
AcDbCircle
 10
451.4999999999997
 20
-1055.0
 30
0.0
 40
8.699999999999818
  0
LINE
  5
307
330
413
100
AcDbEntity
  8
DATA
  6
Continuous
 62
     7
100
AcDbLine
 10
447.1500000000003
 20
-1055.0
 30
0.0
 11
455.8500000000001
 21
-1055.0
 31
0.0
  0
LINE
  5
308
330
413
100
AcDbEntity
  8
DATA
  6
Continuous
 62
     7
100
AcDbLine
 10
451.4999999999997
 20
-1059.35
 30
0.0
 11
451.4999999999997
 21
-1050.65
 31
0.0
  0
CIRCLE
  5
309
330
413
100
AcDbEntity
  8
DATA
  6
Continuous
 62
     7
100
AcDbCircle
 10
532.5000000000001
 20
-1055.0
 30
0.0
 40
8.699999999999818
  0
LINE
  5
30A
330
413
100
AcDbEntity
  8
DATA
  6
Continuous
 62
     7
100
AcDbLine
 10
528.1500000000009
 20
-1055.0
 30
0.0
 11
536.8500000000004
 21
-1055.0
 31
0.0
  0
LINE
  5
30B
330
413
100
AcDbEntity
  8
DATA
  6
Continuous
 62
     7
100
AcDbLine
 10
532.5000000000001
 20
-1059.35
 30
0.0
 11
532.5000000000001
 21
-1050.65
 31
0.0
  0
CIRCLE
  5
30C
330
413
100
AcDbEntity
  8
DATA
  6
Continuous
 62
     7
100
AcDbCircle
 10
1547.499999999999
 20
-1436.0
 30
0.0
 40
8.699999999999818
  0
LINE
  5
30D
330
413
100
AcDbEntity
  8
DATA
  6
Continuous
 62
     7
100
AcDbLine
 10
1551.849999999999
 20
-1436.0
 30
0.0
 11
1543.149999999999
 21
-1436.0
 31
0.0
  0
LINE
  5
30E
330
413
100
AcDbEntity
  8
DATA
  6
Continuous
 62
     7
100
AcDbLine
 10
1547.499999999999
 20
-1431.65
 30
0.0
 11
1547.499999999999
 21
-1440.349999999999
 31
0.0
  0
CIRCLE
  5
30F
330
413
100
AcDbEntity
  8
DATA
  6
Continuous
 62
     7
100
AcDbCircle
 10
1466.499999999999
 20
-1436.0
 30
0.0
 40
8.699999999999818
  0
LINE
  5
310
330
413
100
AcDbEntity
  8
DATA
  6
Continuous
 62
     7
100
AcDbLine
 10
1470.849999999999
 20
-1436.0
 30
0.0
 11
1462.149999999999
 21
-1436.0
 31
0.0
  0
LINE
  5
311
330
413
100
AcDbEntity
  8
DATA
  6
Continuous
 62
     7
100
AcDbLine
 10
1466.499999999999
 20
-1431.65
 30
0.0
 11
1466.499999999999
 21
-1440.349999999999
 31
0.0
  0
CIRCLE
  5
312
330
413
100
AcDbEntity
  8
DATA
  6
Continuous
 62
     7
100
AcDbCircle
 10
1547.499999999999
 20
-1375.0
 30
0.0
 40
8.699999999999818
  0
LINE
  5
313
330
413
100
AcDbEntity
  8
DATA
  6
Continuous
 62
     7
100
AcDbLine
 10
1551.849999999999
 20
-1375.0
 30
0.0
 11
1543.149999999999
 21
-1375.0
 31
0.0
  0
LINE
  5
314
330
413
100
AcDbEntity
  8
DATA
  6
Continuous
 62
     7
100
AcDbLine
 10
1547.499999999999
 20
-1370.65
 30
0.0
 11
1547.499999999999
 21
-1379.349999999999
 31
0.0
  0
CIRCLE
  5
315
330
413
100
AcDbEntity
  8
DATA
  6
Continuous
 62
     7
100
AcDbCircle
 10
1466.499999999999
 20
-1375.0
 30
0.0
 40
8.699999999999818
  0
LINE
  5
316
330
413
100
AcDbEntity
  8
DATA
  6
Continuous
 62
     7
100
AcDbLine
 10
1470.849999999999
 20
-1375.0
 30
0.0
 11
1462.149999999999
 21
-1375.0
 31
0.0
  0
LINE
  5
317
330
413
100
AcDbEntity
  8
DATA
  6
Continuous
 62
     7
100
AcDbLine
 10
1466.499999999999
 20
-1370.65
 30
0.0
 11
1466.499999999999
 21
-1379.349999999999
 31
0.0
  0
CIRCLE
  5
318
330
413
100
AcDbEntity
  8
DATA
  6
Continuous
 62
     7
100
AcDbCircle
 10
1466.499999999999
 20
-994.0
 30
0.0
 40
8.699999999999818
  0
LINE
  5
319
330
413
100
AcDbEntity
  8
DATA
  6
Continuous
 62
     7
100
AcDbLine
 10
1470.849999999999
 20
-994.0
 30
0.0
 11
1462.149999999999
 21
-994.0
 31
0.0
  0
LINE
  5
31A
330
413
100
AcDbEntity
  8
DATA
  6
Continuous
 62
     7
100
AcDbLine
 10
1466.499999999999
 20
-998.3499999999994
 30
0.0
 11
1466.499999999999
 21
-989.6500000000003
 31
0.0
  0
CIRCLE
  5
31B
330
413
100
AcDbEntity
  8
DATA
  6
Continuous
 62
     7
100
AcDbCircle
 10
1466.499999999999
 20
-1055.0
 30
0.0
 40
8.699999999999818
  0
LINE
  5
31C
330
413
100
AcDbEntity
  8
DATA
  6
Continuous
 62
     7
100
AcDbLine
 10
1470.849999999999
 20
-1055.0
 30
0.0
 11
1462.149999999999
 21
-1055.0
 31
0.0
  0
LINE
  5
31D
330
413
100
AcDbEntity
  8
DATA
  6
Continuous
 62
     7
100
AcDbLine
 10
1466.499999999999
 20
-1059.35
 30
0.0
 11
1466.499999999999
 21
-1050.65
 31
0.0
  0
CIRCLE
  5
31E
330
413
100
AcDbEntity
  8
DATA
  6
Continuous
 62
     7
100
AcDbCircle
 10
1547.499999999999
 20
-994.0
 30
0.0
 40
8.699999999999818
  0
LINE
  5
31F
330
413
100
AcDbEntity
  8
DATA
  6
Continuous
 62
     7
100
AcDbLine
 10
1551.849999999999
 20
-994.0
 30
0.0
 11
1543.149999999999
 21
-994.0
 31
0.0
  0
LINE
  5
320
330
413
100
AcDbEntity
  8
DATA
  6
Continuous
 62
     7
100
AcDbLine
 10
1547.499999999999
 20
-998.3499999999994
 30
0.0
 11
1547.499999999999
 21
-989.6500000000003
 31
0.0
  0
CIRCLE
  5
321
330
413
100
AcDbEntity
  8
DATA
  6
Continuous
 62
     7
100
AcDbCircle
 10
1547.499999999999
 20
-1055.0
 30
0.0
 40
8.699999999999818
  0
LINE
  5
322
330
413
100
AcDbEntity
  8
DATA
  6
Continuous
 62
     7
100
AcDbLine
 10
1551.849999999999
 20
-1055.0
 30
0.0
 11
1543.149999999999
 21
-1055.0
 31
0.0
  0
LINE
  5
323
330
413
100
AcDbEntity
  8
DATA
  6
Continuous
 62
     7
100
AcDbLine
 10
1547.499999999999
 20
-1059.35
 30
0.0
 11
1547.499999999999
 21
-1050.65
 31
0.0
  0
ARC
  5
324
330
413
100
AcDbEntity
  8
DATA
  6
Continuous
 62
     7
100
AcDbCircle
 10
-1578.5
 20
-199.8779691540221
 30
0.0
 40
11.09037689547388
100
AcDbArc
 50
38.3288798781353
 51
141.6711201218676
  0
ARC
  5
325
330
413
100
AcDbEntity
  8
DATA
  6
Continuous
 62
     7
100
AcDbCircle
 10
-1497.5
 20
-199.8779691540221
 30
0.0
 40
11.09037689547388
100
AcDbArc
 50
38.3288798781353
 51
141.6711201218676
  0
ARC
  5
326
330
413
100
AcDbEntity
  8
DATA
  6
Continuous
 62
     7
100
AcDbCircle
 10
-451.4999999999999
 20
-199.8779691540221
 30
0.0
 40
11.09037689547455
100
AcDbArc
 50
38.32887987813258
 51
141.6711201218646
  0
ARC
  5
327
330
413
100
AcDbEntity
  8
DATA
  6
Continuous
 62
     7
100
AcDbCircle
 10
-532.5
 20
-199.8779691540221
 30
0.0
 40
11.0903768954746
100
AcDbArc
 50
38.32887987813239
 51
141.6711201218646
  0
TEXT
  5
328
330
413
100
AcDbEntity
  8
DATA
 62
     7
100
AcDbText
 10
1000.00000002
 20
-2327.382200006137
 30
0.0
 40
48.86523437500001
  1
SRX828S Passive
 41
0.7
 11
1000.00000002
 21
-2278.516965631137
 31
0.0
100
AcDbText
 73
     3
  0
LINE
  5
329
330
413
100
AcDbEntity
  8
DATA
  6
Continuous
 62
     7
100
AcDbLine
 10
1256.0
 20
-1131.200000000002
 30
0.0
 11
1343.5
 21
-1131.200000000002
 31
0.0
  0
LINE
  5
32A
330
413
100
AcDbEntity
  8
DATA
  6
Continuous
 62
     7
100
AcDbLine
 10
1254.0
 20
-1133.200000000002
 30
0.0
 11
1254.0
 21
-1296.799999999998
 31
0.0
  0
LINE
  5
32B
330
413
100
AcDbEntity
  8
DATA
  6
Continuous
 62
     7
100
AcDbLine
 10
1236.5
 20
-1123.4
 30
0.0
 11
1236.5
 21
-1306.6
 31
0.0
  0
LINE
  5
32C
330
413
100
AcDbEntity
  8
DATA
  6
Continuous
 62
     7
100
AcDbLine
 10
1353.0
 20
-1113.4
 30
0.0
 11
1246.5
 21
-1113.4
 31
0.0
  0
ARC
  5
32D
330
413
100
AcDbEntity
  8
DATA
  6
Continuous
 62
     7
100
AcDbCircle
 10
1246.5
 20
-1123.4
 30
0.0
 40
10.0
100
AcDbArc
 50
90.0
 51
180.0
  0
CIRCLE
  5
32E
330
413
100
AcDbEntity
  8
DATA
  6
Continuous
 62
     7
100
AcDbCircle
 10
1248.5
 20
-1123.625000000001
 30
0.0
 40
4.850000000000363
  0
ARC
  5
32F
330
413
100
AcDbEntity
  8
DATA
  6
Continuous
 62
     7
100
AcDbCircle
 10
1256.0
 20
-1133.200000000002
 30
0.0
 40
2.0
100
AcDbArc
 50
90.0
 51
180.0
  0
LINE
  5
330
330
413
100
AcDbEntity
  8
DATA
  6
Continuous
 62
     7
100
AcDbLine
 10
1246.074999999999
 20
-1123.625000000001
 30
0.0
 11
1250.925
 21
-1123.625000000001
 31
0.0
  0
LINE
  5
331
330
413
100
AcDbEntity
  8
DATA
  6
Continuous
 62
     7
100
AcDbLine
 10
1248.5
 20
-1126.05
 30
0.0
 11
1248.5
 21
-1121.2
 31
0.0
  0
CIRCLE
  5
332
330
413
100
AcDbEntity
  8
DATA
  6
Continuous
 62
     7
100
AcDbCircle
 10
1245.0
 20
-1215.0
 30
0.0
 40
4.850000000000363
  0
LINE
  5
333
330
413
100
AcDbEntity
  8
DATA
  6
Continuous
 62
     7
100
AcDbLine
 10
1242.574999999999
 20
-1215.0
 30
0.0
 11
1247.425
 21
-1215.0
 31
0.0
  0
LINE
  5
334
330
413
100
AcDbEntity
  8
DATA
  6
Continuous
 62
     7
100
AcDbLine
 10
1245.0
 20
-1217.425
 30
0.0
 11
1245.0
 21
-1212.574999999999
 31
0.0
  0
LINE
  5
335
330
413
100
AcDbEntity
  8
DATA
  6
Continuous
 62
     7
100
AcDbLine
 10
1345.5
 20
-1133.200000000002
 30
0.0
 11
1345.5
 21
-1296.799999999998
 31
0.0
  0
LINE
  5
336
330
413
100
AcDbEntity
  8
DATA
  6
Continuous
 62
     7
100
AcDbLine
 10
1363.0
 20
-1123.4
 30
0.0
 11
1363.0
 21
-1306.6
 31
0.0
  0
ARC
  5
337
330
413
100
AcDbEntity
  8
DATA
  6
Continuous
 62
     7
100
AcDbCircle
 10
1353.0
 20
-1123.4
 30
0.0
 40
10.0
100
AcDbArc
 50
0.0
 51
90.0
  0
CIRCLE
  5
338
330
413
100
AcDbEntity
  8
DATA
  6
Continuous
 62
     7
100
AcDbCircle
 10
1351.0
 20
-1123.625000000001
 30
0.0
 40
4.850000000000363
  0
ARC
  5
339
330
413
100
AcDbEntity
  8
DATA
  6
Continuous
 62
     7
100
AcDbCircle
 10
1343.5
 20
-1133.200000000002
 30
0.0
 40
2.0
100
AcDbArc
 50
0.0
 51
90.0
  0
LINE
  5
33A
330
413
100
AcDbEntity
  8
DATA
  6
Continuous
 62
     7
100
AcDbLine
 10
1353.425
 20
-1123.625000000001
 30
0.0
 11
1348.574999999999
 21
-1123.625000000001
 31
0.0
  0
LINE
  5
33B
330
413
100
AcDbEntity
  8
DATA
  6
Continuous
 62
     7
100
AcDbLine
 10
1351.0
 20
-1126.05
 30
0.0
 11
1351.0
 21
-1121.2
 31
0.0
  0
CIRCLE
  5
33C
330
413
100
AcDbEntity
  8
DATA
  6
Continuous
 62
     7
100
AcDbCircle
 10
1354.5
 20
-1215.0
 30
0.0
 40
4.850000000000363
  0
LINE
  5
33D
330
413
100
AcDbEntity
  8
DATA
  6
Continuous
 62
     7
100
AcDbLine
 10
1356.925
 20
-1215.0
 30
0.0
 11
1352.074999999999
 21
-1215.0
 31
0.0
  0
LINE
  5
33E
330
413
100
AcDbEntity
  8
DATA
  6
Continuous
 62
     7
100
AcDbLine
 10
1354.5
 20
-1217.425
 30
0.0
 11
1354.5
 21
-1212.574999999999
 31
0.0
  0
LINE
  5
33F
330
413
100
AcDbEntity
  8
DATA
  6
Continuous
 62
     7
100
AcDbLine
 10
1256.0
 20
-1298.799999999998
 30
0.0
 11
1343.5
 21
-1298.799999999998
 31
0.0
  0
LINE
  5
340
330
413
100
AcDbEntity
  8
DATA
  6
Continuous
 62
     7
100
AcDbLine
 10
1353.0
 20
-1316.6
 30
0.0
 11
1246.5
 21
-1316.6
 31
0.0
  0
ARC
  5
341
330
413
100
AcDbEntity
  8
DATA
  6
Continuous
 62
     7
100
AcDbCircle
 10
1246.5
 20
-1306.6
 30
0.0
 40
10.0
100
AcDbArc
 50
180.0
 51
270.0
  0
CIRCLE
  5
342
330
413
100
AcDbEntity
  8
DATA
  6
Continuous
 62
     7
100
AcDbCircle
 10
1248.5
 20
-1306.374999999998
 30
0.0
 40
4.850000000000363
  0
ARC
  5
343
330
413
100
AcDbEntity
  8
DATA
  6
Continuous
 62
     7
100
AcDbCircle
 10
1256.0
 20
-1296.799999999998
 30
0.0
 40
2.0
100
AcDbArc
 50
180.0
 51
270.0
  0
LINE
  5
344
330
413
100
AcDbEntity
  8
DATA
  6
Continuous
 62
     7
100
AcDbLine
 10
1246.074999999999
 20
-1306.374999999998
 30
0.0
 11
1250.925
 21
-1306.374999999998
 31
0.0
  0
LINE
  5
345
330
413
100
AcDbEntity
  8
DATA
  6
Continuous
 62
     7
100
AcDbLine
 10
1248.5
 20
-1303.949999999999
 30
0.0
 11
1248.5
 21
-1308.799999999999
 31
0.0
  0
ARC
  5
346
330
413
100
AcDbEntity
  8
DATA
  6
Continuous
 62
     7
100
AcDbCircle
 10
1353.0
 20
-1306.6
 30
0.0
 40
10.0
100
AcDbArc
 50
270.0
 51
0.0
  0
CIRCLE
  5
347
330
413
100
AcDbEntity
  8
DATA
  6
Continuous
 62
     7
100
AcDbCircle
 10
1351.0
 20
-1306.374999999998
 30
0.0
 40
4.850000000000363
  0
ARC
  5
348
330
413
100
AcDbEntity
  8
DATA
  6
Continuous
 62
     7
100
AcDbCircle
 10
1343.5
 20
-1296.799999999998
 30
0.0
 40
2.0
100
AcDbArc
 50
270.0
 51
0.0
  0
LINE
  5
349
330
413
100
AcDbEntity
  8
DATA
  6
Continuous
 62
     7
100
AcDbLine
 10
1353.425
 20
-1306.374999999998
 30
0.0
 11
1348.574999999999
 21
-1306.374999999998
 31
0.0
  0
LINE
  5
34A
330
413
100
AcDbEntity
  8
DATA
  6
Continuous
 62
     7
100
AcDbLine
 10
1351.0
 20
-1303.949999999999
 30
0.0
 11
1351.0
 21
-1308.799999999999
 31
0.0
  0
CIRCLE
  5
34B
330
413
100
AcDbEntity
  8
DATA
  6
Continuous
 62
     7
100
AcDbCircle
 10
1299.75
 20
-1163.429717106696
 30
0.0
 40
6.095999999999548
  0
CIRCLE
  5
34C
330
413
100
AcDbEntity
  8
DATA
  6
Continuous
 62
     7
100
AcDbCircle
 10
1299.75
 20
-1163.429717106696
 30
0.0
 40
3.301999999999679
  0
LINE
  5
34D
330
413
100
AcDbEntity
  8
DATA
  6
Continuous
 62
     7
100
AcDbLine
 10
1298.35299995682
 20
-1173.493214538717
 30
0.0
 11
1298.35299995682
 21
-1172.209267159957
 31
0.0
  0
ARC
  5
34E
330
413
100
AcDbEntity
  8
DATA
  6
Continuous
 62
     7
100
AcDbCircle
 10
1299.75
 20
-1163.429717106696
 30
0.0
 40
10.16000000000004
100
AcDbArc
 50
262.0967922665004
 51
277.9032077334997
  0
LINE
  5
34F
330
413
100
AcDbEntity
  8
DATA
  6
Continuous
 62
     7
100
AcDbLine
 10
1301.14700004572
 20
-1172.209267159957
 30
0.0
 11
1301.14700004572
 21
-1173.493214538717
 31
0.0
  0
ARC
  5
350
330
413
100
AcDbEntity
  8
DATA
  6
Continuous
 62
     7
100
AcDbCircle
 10
1299.75
 20
-1163.429717106696
 30
0.0
 40
8.889999999999837
100
AcDbArc
 50
279.0410961485986
 51
73.3984504009982
  0
LINE
  5
351
330
413
100
AcDbEntity
  8
DATA
  6
Continuous
 62
     7
100
AcDbLine
 10
1302.290000017779
 20
-1153.592339400237
 30
0.0
 11
1302.290000017779
 21
-1154.910298125757
 31
0.0
  0
ARC
  5
352
330
413
100
AcDbEntity
  8
DATA
  6
Continuous
 62
     7
100
AcDbCircle
 10
1299.75
 20
-1163.429717106696
 30
0.0
 40
10.16000000000003
100
AcDbArc
 50
75.5224878141021
 51
104.4775121858979
  0
LINE
  5
353
330
413
100
AcDbEntity
  8
DATA
  6
Continuous
 62
     7
100
AcDbLine
 10
1297.20999998476
 20
-1154.910298125757
 30
0.0
 11
1297.20999998476
 21
-1153.592339400237
 31
0.0
  0
ARC
  5
354
330
413
100
AcDbEntity
  8
DATA
  6
Continuous
 62
     7
100
AcDbCircle
 10
1299.75
 20
-1163.429717106696
 30
0.0
 40
8.890000000000128
100
AcDbArc
 50
106.6015495990014
 51
260.9589038514016
  0
CIRCLE
  5
355
330
413
100
AcDbEntity
  8
DATA
  6
Continuous
 62
     7
100
AcDbCircle
 10
1299.75
 20
-1163.429717106696
 30
0.0
 40
12.02971710669675
  0
CIRCLE
  5
356
330
413
100
AcDbEntity
  8
DATA
  6
Continuous
 62
     7
100
AcDbCircle
 10
1299.75
 20
-1202.48915132009
 30
0.0
 40
6.095999999999548
  0
CIRCLE
  5
357
330
413
100
AcDbEntity
  8
DATA
  6
Continuous
 62
     7
100
AcDbCircle
 10
1299.75
 20
-1202.48915132009
 30
0.0
 40
3.301999999999679
  0
LINE
  5
358
330
413
100
AcDbEntity
  8
DATA
  6
Continuous
 62
     7
100
AcDbLine
 10
1298.35299995682
 20
-1212.552648752111
 30
0.0
 11
1298.35299995682
 21
-1211.26870137335
 31
0.0
  0
ARC
  5
359
330
413
100
AcDbEntity
  8
DATA
  6
Continuous
 62
     7
100
AcDbCircle
 10
1299.75
 20
-1202.48915132009
 30
0.0
 40
10.16000000000004
100
AcDbArc
 50
262.0967922665004
 51
277.9032077334997
  0
LINE
  5
35A
330
413
100
AcDbEntity
  8
DATA
  6
Continuous
 62
     7
100
AcDbLine
 10
1301.14700004572
 20
-1211.26870137335
 30
0.0
 11
1301.14700004572
 21
-1212.552648752111
 31
0.0
  0
ARC
  5
35B
330
413
100
AcDbEntity
  8
DATA
  6
Continuous
 62
     7
100
AcDbCircle
 10
1299.75
 20
-1202.48915132009
 30
0.0
 40
8.889999999999837
100
AcDbArc
 50
279.0410961485986
 51
73.3984504009982
  0
LINE
  5
35C
330
413
100
AcDbEntity
  8
DATA
  6
Continuous
 62
     7
100
AcDbLine
 10
1302.290000017779
 20
-1192.651773613631
 30
0.0
 11
1302.290000017779
 21
-1193.969732339151
 31
0.0
  0
ARC
  5
35D
330
413
100
AcDbEntity
  8
DATA
  6
Continuous
 62
     7
100
AcDbCircle
 10
1299.75
 20
-1202.48915132009
 30
0.0
 40
10.16000000000003
100
AcDbArc
 50
75.5224878141021
 51
104.4775121858979
  0
LINE
  5
35E
330
413
100
AcDbEntity
  8
DATA
  6
Continuous
 62
     7
100
AcDbLine
 10
1297.20999998476
 20
-1193.969732339151
 30
0.0
 11
1297.20999998476
 21
-1192.651773613631
 31
0.0
  0
ARC
  5
35F
330
413
100
AcDbEntity
  8
DATA
  6
Continuous
 62
     7
100
AcDbCircle
 10
1299.75
 20
-1202.48915132009
 30
0.0
 40
8.890000000000128
100
AcDbArc
 50
106.6015495990014
 51
260.9589038514016
  0
CIRCLE
  5
360
330
413
100
AcDbEntity
  8
DATA
  6
Continuous
 62
     7
100
AcDbCircle
 10
1299.75
 20
-1202.48915132009
 30
0.0
 40
12.02971710669675
  0
LINE
  5
361
330
413
100
AcDbEntity
  8
DATA
  6
Continuous
 62
     7
100
AcDbLine
 10
1292.25
 20
-1266.299999999998
 30
0.0
 11
1307.25
 21
-1266.299999999998
 31
0.0
  0
LINE
  5
362
330
413
100
AcDbEntity
  8
DATA
  6
Continuous
 62
     7
100
AcDbLine
 10
1292.25
 20
-1241.899999999998
 30
0.0
 11
1307.25
 21
-1241.899999999998
 31
0.0
  0
LINE
  5
363
330
413
100
AcDbEntity
  8
DATA
  6
Continuous
 62
     7
100
AcDbLine
 10
1295.1
 20
-1260.599999999998
 30
0.0
 11
1304.4
 21
-1260.599999999998
 31
0.0
  0
LINE
  5
364
330
413
100
AcDbEntity
  8
DATA
  6
Continuous
 62
     7
100
AcDbLine
 10
1295.1
 20
-1257.399999999998
 30
0.0
 11
1304.4
 21
-1257.399999999998
 31
0.0
  0
LINE
  5
365
330
413
100
AcDbEntity
  8
DATA
  6
Continuous
 62
     7
100
AcDbLine
 10
1290.25
 20
-1264.299999999998
 30
0.0
 11
1290.25
 21
-1243.899999999998
 31
0.0
  0
LINE
  5
366
330
413
100
AcDbEntity
  8
DATA
  6
Continuous
 62
     7
100
AcDbLine
 10
1309.25
 20
-1264.299999999998
 30
0.0
 11
1309.25
 21
-1243.899999999998
 31
0.0
  0
LINE
  5
367
330
413
100
AcDbEntity
  8
DATA
  6
Continuous
 62
     7
100
AcDbLine
 10
1295.1
 20
-1260.599999999998
 30
0.0
 11
1295.1
 21
-1257.399999999998
 31
0.0
  0
LINE
  5
368
330
413
100
AcDbEntity
  8
DATA
  6
Continuous
 62
     7
100
AcDbLine
 10
1304.4
 20
-1260.599999999998
 30
0.0
 11
1304.4
 21
-1257.399999999998
 31
0.0
  0
ARC
  5
369
330
413
100
AcDbEntity
  8
DATA
  6
Continuous
 62
     7
100
AcDbCircle
 10
1292.25
 20
-1243.899999999998
 30
0.0
 40
2.0
100
AcDbArc
 50
90.0
 51
180.0
  0
ARC
  5
36A
330
413
100
AcDbEntity
  8
DATA
  6
Continuous
 62
     7
100
AcDbCircle
 10
1307.25
 20
-1243.899999999998
 30
0.0
 40
2.0
100
AcDbArc
 50
0.0
 51
90.0
  0
ARC
  5
36B
330
413
100
AcDbEntity
  8
DATA
  6
Continuous
 62
     7
100
AcDbCircle
 10
1307.25
 20
-1264.299999999998
 30
0.0
 40
2.0
100
AcDbArc
 50
270.0
 51
0.0
  0
ARC
  5
36C
330
413
100
AcDbEntity
  8
DATA
  6
Continuous
 62
     7
100
AcDbCircle
 10
1292.25
 20
-1264.299999999998
 30
0.0
 40
2.0
100
AcDbArc
 50
180.0
 51
270.0
  0
TEXT
  5
36D
330
413
100
AcDbEntity
  8
DATA
 62
     7
100
AcDbText
 10
1290.150651041666
 20
-1185.429427083333
 30
0.0
 40
4.6171875
  1
IN/THRU
 41
0.7
 72
     1
 11
1300.385416666666
 21
-1183.120833333333
 31
0.0
100
AcDbText
 73
     2
  0
LINE
  5
36E
330
413
100
AcDbEntity
  8
DATA
  6
Continuous
 62
     7
100
AcDbLine
 10
1299.75
 20
-1175.459434213393
 30
0.0
 11
1299.75
 21
-1179.475
 31
0.0
  0
LINE
  5
36F
330
413
100
AcDbEntity
  8
DATA
  6
Continuous
 62
     7
100
AcDbLine
 10
1299.75
 20
-1190.459434213393
 30
0.0
 11
1299.75
 21
-1186.225
 31
0.0
  0
TEXT
  5
370
330
413
100
AcDbEntity
  8
DATA
 62
     7
100
AcDbText
 10
1292.413072916666
 20
-1239.804427083333
 30
0.0
 40
4.6171875
  1
NL4 ±1
 41
0.7
 72
     1
 11
1300.385416666666
 21
-1237.495833333333
 31
0.0
100
AcDbText
 73
     2
  0
TEXT
  5
371
330
413
100
AcDbEntity
  8
DATA
 62
     7
100
AcDbText
 10
1291.874401041666
 20
-1272.554427083333
 30
0.0
 40
4.6171875
  1
NL4 ±2
 41
0.7
 72
     1
 11
1300.385416666666
 21
-1270.245833333333
 31
0.0
100
AcDbText
 73
     2
  0
TEXT
  5
372
330
413
100
AcDbEntity
  8
DATA
 62
     7
100
AcDbText
 10
1261.212203963419
 20
-1256.099944411431
 30
0.0
 40
4.6171875
  1
INPUT:8Ω
 41
0.7
 11
1261.212203963419
 21
-1253.791350661431
 31
0.0
100
AcDbText
 73
     2
  0
TEXT
  5
373
330
413
100
AcDbEntity
  8
DATA
 62
     7
100
AcDbText
 10
1023.904173900463
 20
-752.1473524305555
 30
0.0
 40
54.29470486111111
  1
背面パネル拡大図
 41
0.7
 72
     1
 11
1200.0
 21
-725.0
 31
0.0
100
AcDbText
 73
     2
  0
LINE
  5
374
330
413
100
AcDbEntity
  8
DATA
  6
Continuous
 62
     7
100
AcDbLine
 10
925.0
 20
-775.0
 30
0.0
 11
1475.0
 21
-775.0
 31
0.0
  0
LINE
  5
375
330
413
100
AcDbEntity
  8
DATA
  6
Continuous
 62
     7
100
AcDbLine
 10
834.0
 20
407.8617101671414
 30
0.0
 11
834.0
 21
-642.1382898328584
 31
0.0
  0
LINE
  5
376
330
413
100
AcDbEntity
  8
DATA
  6
Continuous
 62
     7
100
AcDbLine
 10
1566.0
 20
392.1382898328585
 30
0.0
 11
1566.0
 21
-657.8617101671416
 31
0.0
  0
CIRCLE
  5
377
330
413
100
AcDbEntity
  8
DATA
  6
Continuous
 62
     7
100
AcDbCircle
 10
1200.0
 20
272.9622631464081
 30
0.0
 40
48.7679999999964
  0
CIRCLE
  5
378
330
413
100
AcDbEntity
  8
DATA
  6
Continuous
 62
     7
100
AcDbCircle
 10
1200.0
 20
272.9622631464081
 30
0.0
 40
26.41599999999744
  0
LINE
  5
379
330
413
100
AcDbEntity
  8
DATA
  6
Continuous
 62
     7
100
AcDbLine
 10
1188.82399965456
 20
192.4542836902456
 30
0.0
 11
1188.82399965456
 21
202.7258627203282
 31
0.0
  0
ARC
  5
37A
330
413
100
AcDbEntity
  8
DATA
  6
Continuous
 62
     7
100
AcDbCircle
 10
1200.0
 20
272.9622631464081
 30
0.0
 40
81.2800000000003
100
AcDbArc
 50
262.0967922665004
 51
277.9032077334997
  0
LINE
  5
37B
330
413
100
AcDbEntity
  8
DATA
  6
Continuous
 62
     7
100
AcDbLine
 10
1211.176000365762
 20
202.7258627203282
 30
0.0
 11
1211.176000365762
 21
192.4542836902456
 31
0.0
  0
ARC
  5
37C
330
413
100
AcDbEntity
  8
DATA
  6
Continuous
 62
     7
100
AcDbCircle
 10
1200.0
 20
272.9622631464081
 30
0.0
 40
71.1199999999987
100
AcDbArc
 50
279.0410961485986
 51
73.39845040099804
  0
LINE
  5
37D
330
413
100
AcDbEntity
  8
DATA
  6
Continuous
 62
     7
100
AcDbLine
 10
1220.320000142237
 20
351.6612847980813
 30
0.0
 11
1220.320000142237
 21
341.1176149939238
 31
0.0
  0
ARC
  5
37E
330
413
100
AcDbEntity
  8
DATA
  6
Continuous
 62
     7
100
AcDbCircle
 10
1200.0
 20
272.9622631464081
 30
0.0
 40
81.28000000000024
100
AcDbArc
 50
75.5224878141021
 51
104.4775121858979
  0
LINE
  5
37F
330
413
100
AcDbEntity
  8
DATA
  6
Continuous
 62
     7
100
AcDbLine
 10
1179.679999878084
 20
341.1176149939238
 30
0.0
 11
1179.679999878084
 21
351.6612847980813
 31
0.0
  0
ARC
  5
380
330
413
100
AcDbEntity
  8
DATA
  6
Continuous
 62
     7
100
AcDbCircle
 10
1200.0
 20
272.9622631464081
 30
0.0
 40
71.12000000000103
100
AcDbArc
 50
106.6015495990014
 51
260.9589038514016
  0
CIRCLE
  5
381
330
413
100
AcDbEntity
  8
DATA
  6
Continuous
 62
     7
100
AcDbCircle
 10
1200.0
 20
272.9622631464081
 30
0.0
 40
96.237736853574
  0
CIRCLE
  5
382
330
413
100
AcDbEntity
  8
DATA
  6
Continuous
 62
     7
100
AcDbCircle
 10
1200.0
 20
-39.51321056074085
 30
0.0
 40
48.7679999999964
  0
CIRCLE
  5
383
330
413
100
AcDbEntity
  8
DATA
  6
Continuous
 62
     7
100
AcDbCircle
 10
1200.0
 20
-39.51321056074085
 30
0.0
 40
26.41599999999744
  0
LINE
  5
384
330
413
100
AcDbEntity
  8
DATA
  6
Continuous
 62
     7
100
AcDbLine
 10
1188.82399965456
 20
-120.0211900169033
 30
0.0
 11
1188.82399965456
 21
-109.7496109868207
 31
0.0
  0
ARC
  5
385
330
413
100
AcDbEntity
  8
DATA
  6
Continuous
 62
     7
100
AcDbCircle
 10
1200.0
 20
-39.51321056074085
 30
0.0
 40
81.2800000000003
100
AcDbArc
 50
262.0967922665004
 51
277.9032077334997
  0
LINE
  5
386
330
413
100
AcDbEntity
  8
DATA
  6
Continuous
 62
     7
100
AcDbLine
 10
1211.176000365762
 20
-109.7496109868207
 30
0.0
 11
1211.176000365762
 21
-120.0211900169033
 31
0.0
  0
ARC
  5
387
330
413
100
AcDbEntity
  8
DATA
  6
Continuous
 62
     7
100
AcDbCircle
 10
1200.0
 20
-39.51321056074085
 30
0.0
 40
71.1199999999987
100
AcDbArc
 50
279.0410961485986
 51
73.39845040099804
  0
LINE
  5
388
330
413
100
AcDbEntity
  8
DATA
  6
Continuous
 62
     7
100
AcDbLine
 10
1220.320000142237
 20
39.18581109093248
 30
0.0
 11
1220.320000142237
 21
28.64214128677486
 31
0.0
  0
ARC
  5
389
330
413
100
AcDbEntity
  8
DATA
  6
Continuous
 62
     7
100
AcDbCircle
 10
1200.0
 20
-39.51321056074085
 30
0.0
 40
81.28000000000024
100
AcDbArc
 50
75.5224878141021
 51
104.4775121858979
  0
LINE
  5
38A
330
413
100
AcDbEntity
  8
DATA
  6
Continuous
 62
     7
100
AcDbLine
 10
1179.679999878084
 20
28.64214128677486
 30
0.0
 11
1179.679999878084
 21
39.18581109093248
 31
0.0
  0
ARC
  5
38B
330
413
100
AcDbEntity
  8
DATA
  6
Continuous
 62
     7
100
AcDbCircle
 10
1200.0
 20
-39.51321056074085
 30
0.0
 40
71.12000000000103
100
AcDbArc
 50
106.6015495990014
 51
260.9589038514016
  0
CIRCLE
  5
38C
330
413
100
AcDbEntity
  8
DATA
  6
Continuous
 62
     7
100
AcDbCircle
 10
1200.0
 20
-39.51321056074085
 30
0.0
 40
96.237736853574
  0
LINE
  5
38D
330
413
100
AcDbEntity
  8
DATA
  6
Continuous
 62
     7
100
AcDbLine
 10
1140.0
 20
-550.0
 30
0.0
 11
1260.0
 21
-550.0
 31
0.0
  0
LINE
  5
38E
330
413
100
AcDbEntity
  8
DATA
  6
Continuous
 62
     7
100
AcDbLine
 10
1140.0
 20
-354.7999999999992
 30
0.0
 11
1260.0
 21
-354.7999999999992
 31
0.0
  0
LINE
  5
38F
330
413
100
AcDbEntity
  8
DATA
  6
Continuous
 62
     7
100
AcDbLine
 10
1162.799999999999
 20
-504.3999999999996
 30
0.0
 11
1237.2
 21
-504.3999999999996
 31
0.0
  0
LINE
  5
390
330
413
100
AcDbEntity
  8
DATA
  6
Continuous
 62
     7
100
AcDbLine
 10
1162.799999999999
 20
-478.7999999999992
 30
0.0
 11
1237.2
 21
-478.7999999999992
 31
0.0
  0
LINE
  5
391
330
413
100
AcDbEntity
  8
DATA
  6
Continuous
 62
     7
100
AcDbLine
 10
1124.0
 20
-534.0
 30
0.0
 11
1124.0
 21
-370.7999999999992
 31
0.0
  0
LINE
  5
392
330
413
100
AcDbEntity
  8
DATA
  6
Continuous
 62
     7
100
AcDbLine
 10
1276.0
 20
-534.0
 30
0.0
 11
1276.0
 21
-370.7999999999992
 31
0.0
  0
LINE
  5
393
330
413
100
AcDbEntity
  8
DATA
  6
Continuous
 62
     7
100
AcDbLine
 10
1162.799999999999
 20
-504.3999999999996
 30
0.0
 11
1162.799999999999
 21
-478.7999999999992
 31
0.0
  0
LINE
  5
394
330
413
100
AcDbEntity
  8
DATA
  6
Continuous
 62
     7
100
AcDbLine
 10
1237.2
 20
-504.3999999999996
 30
0.0
 11
1237.2
 21
-478.7999999999992
 31
0.0
  0
ARC
  5
395
330
413
100
AcDbEntity
  8
DATA
  6
Continuous
 62
     7
100
AcDbCircle
 10
1140.0
 20
-370.7999999999992
 30
0.0
 40
16.0
100
AcDbArc
 50
90.0
 51
180.0
  0
ARC
  5
396
330
413
100
AcDbEntity
  8
DATA
  6
Continuous
 62
     7
100
AcDbCircle
 10
1260.0
 20
-370.7999999999992
 30
0.0
 40
16.0
100
AcDbArc
 50
0.0
 51
90.0
  0
ARC
  5
397
330
413
100
AcDbEntity
  8
DATA
  6
Continuous
 62
     7
100
AcDbCircle
 10
1260.0
 20
-534.0
 30
0.0
 40
16.0
100
AcDbArc
 50
270.0
 51
0.0
  0
ARC
  5
398
330
413
100
AcDbEntity
  8
DATA
  6
Continuous
 62
     7
100
AcDbCircle
 10
1140.0
 20
-534.0
 30
0.0
 40
16.0
100
AcDbArc
 50
180.0
 51
270.0
  0
TEXT
  5
399
330
413
100
AcDbEntity
  8
DATA
 62
     7
100
AcDbText
 10
1123.205208333332
 20
96.96458333331793
 30
0.0
 40
36.9375
  1
IN/THRU
 41
0.7
 72
     1
 11
1205.083333333332
 21
115.4333333333179
 31
0.0
100
AcDbText
 73
     2
  0
LINE
  5
39A
330
413
100
AcDbEntity
  8
DATA
  6
Continuous
 62
     7
100
AcDbLine
 10
1200.0
 20
176.7245262928336
 30
0.0
 11
1200.0
 21
144.599999999984
 31
0.0
  0
LINE
  5
39B
330
413
100
AcDbEntity
  8
DATA
  6
Continuous
 62
     7
100
AcDbLine
 10
1200.0
 20
56.72452629283362
 30
0.0
 11
1200.0
 21
90.59999999998399
 31
0.0
  0
TEXT
  5
39C
330
413
100
AcDbEntity
  8
DATA
 62
     7
100
AcDbText
 10
1141.304583333332
 20
-338.0354166666821
 30
0.0
 40
36.9375
  1
NL4 ±1
 41
0.7
 72
     1
 11
1205.083333333332
 21
-319.566666666682
 31
0.0
100
AcDbText
 73
     2
  0
TEXT
  5
39D
330
413
100
AcDbEntity
  8
DATA
 62
     7
100
AcDbText
 10
1136.995208333332
 20
-600.0354166666822
 30
0.0
 40
36.9375
  1
NL4 ±2
 41
0.7
 72
     1
 11
1205.083333333332
 21
-581.5666666666821
 31
0.0
100
AcDbText
 73
     2
  0
TEXT
  5
39E
330
413
100
AcDbEntity
  8
DATA
 62
     7
100
AcDbText
 10
891.697631707353
 20
-468.3995552914621
 30
0.0
 40
36.9375
  1
INPUT:8Ω
 41
0.7
 11
891.697631707353
 21
-449.9308052914621
 31
0.0
100
AcDbText
 73
     2
  0
ARC
  5
39F
330
413
100
AcDbEntity
  8
DATA
  6
Continuous
 62
     7
100
AcDbCircle
 10
1000.0
 20
-402.2222222222222
 30
0.0
 40
812.5
100
AcDbArc
 50
75.74996730219641
 51
101.7889750239804
  0
ARC
  5
3A0
330
413
100
AcDbEntity
  8
DATA
  6
Continuous
 62
     7
100
AcDbCircle
 10
1400.0
 20
1187.5
 30
0.0
 40
812.5
100
AcDbArc
 50
255.7499673021964
 51
281.7889750239805
  0
ARC
  5
3A1
330
413
100
AcDbEntity
  8
DATA
  6
Continuous
 62
     7
100
AcDbCircle
 10
1000.0
 20
-1437.5
 30
0.0
 40
812.5
100
AcDbArc
 50
75.74996730219641
 51
101.7889750239804
  0
ARC
  5
3A2
330
413
100
AcDbEntity
  8
DATA
  6
Continuous
 62
     7
100
AcDbCircle
 10
1400.0
 20
137.5
 30
0.0
 40
812.5
100
AcDbArc
 50
255.7499673021964
 51
281.7889750239805
  0
ENDSEC
  0
SECTION
  2
OBJECTS
  0
DICTIONARY
  5
3B0
330
0
100
AcDbDictionary
281
     1
  3
ACAD_CIP_PREVIOUS_PRODUCT_INFO
350
42D
  3
ACAD_COLOR
350
406
  3
ACAD_DETAILVIEWSTYLE
350
40D
  3
ACAD_GROUP
350
3B1
  3
ACAD_LAYOUT
350
405
  3
ACAD_MATERIAL
350
3B4
  3
ACAD_MLEADERSTYLE
350
409
  3
ACAD_MLINESTYLE
350
402
  3
ACAD_PLOTSETTINGS
350
404
  3
ACAD_PLOTSTYLENAME
350
3B2
  3
ACAD_SCALELIST
350
3E6
  3
ACAD_SECTIONVIEWSTYLE
350
40B
  3
ACAD_TABLESTYLE
350
407
  3
ACAD_VISUALSTYLE
350
3CD
  3
ACDB_RECOMPOSE_DATA
350
445
  3
AcDbVariableDictionary
350
438
  3
DWGPROPS
350
446
  0
DICTIONARY
  5
42E
330
3F8
100
AcDbDictionary
280
     1
281
     1
  3
ADSK_XREC_LAYER_RECONCILED
360
42F
  0
DICTIONARY
  5
430
330
417
100
AcDbDictionary
280
     1
281
     1
  3
ADSK_XREC_LAYER_RECONCILED
360
431
  0
DICTIONARY
  5
432
330
425
100
AcDbDictionary
280
     1
281
     1
  3
ADSK_XREC_LAYER_RECONCILED
360
433
  0
DICTIONARY
  5
434
330
426
100
AcDbDictionary
280
     1
281
     1
  3
ADSK_XREC_LAYER_RECONCILED
360
435
  0
DICTIONARY
  5
436
330
427
100
AcDbDictionary
280
     1
281
     1
  3
ADSK_XREC_LAYER_RECONCILED
360
437
  0
XRECORD
  5
42D
102
{ACAD_REACTORS
330
3B0
102
}
330
3B0
100
AcDbXrecord
280
     1
300
ACDLT
300
2018
300
ACDLT_F_S
  0
DICTIONARY
  5
406
102
{ACAD_REACTORS
330
3B0
102
}
330
3B0
100
AcDbDictionary
281
     1
  0
DICTIONARY
  5
40D
102
{ACAD_REACTORS
330
3B0
102
}
330
3B0
100
AcDbDictionary
281
     1
  3
Imperial24
350
40E
  0
DICTIONARY
  5
3B1
102
{ACAD_REACTORS
330
3B0
102
}
330
3B0
100
AcDbDictionary
281
     1
  0
DICTIONARY
  5
405
102
{ACAD_REACTORS
330
3B0
102
}
330
3B0
100
AcDbDictionary
281
     1
  3
Model
350
416
  3
レイアウト1
350
412
  0
DICTIONARY
  5
3B4
102
{ACAD_REACTORS
330
3B0
102
}
330
3B0
100
AcDbDictionary
281
     1
  3
ByBlock
350
3BD
  3
ByLayer
350
3B5
  3
Global
350
3C5
  0
DICTIONARY
  5
409
102
{ACAD_REACTORS
330
3B0
102
}
330
3B0
100
AcDbDictionary
281
     1
  3
Standard
350
40A
  0
DICTIONARY
  5
402
102
{ACAD_REACTORS
330
3B0
102
}
330
3B0
100
AcDbDictionary
281
     1
  3
Standard
350
403
  0
DICTIONARY
  5
404
102
{ACAD_REACTORS
330
3B0
102
}
330
3B0
100
AcDbDictionary
281
     1
  0
ACDBDICTIONARYWDFLT
  5
3B2
102
{ACAD_REACTORS
330
3B0
102
}
330
3B0
100
AcDbDictionary
281
     1
  3
Normal
350
3B3
100
AcDbDictionaryWithDefault
340
3B3
  0
DICTIONARY
  5
3E6
102
{ACAD_REACTORS
330
3B0
102
}
330
3B0
100
AcDbDictionary
281
     1
  3
A0
350
3E7
  3
A1
350
3E8
  3
A2
350
3E9
  3
A3
350
3EA
  3
A4
350
3EB
  3
A5
350
3EC
  3
A6
350
3ED
  3
A7
350
3EE
  3
A8
350
3EF
  3
A9
350
3F0
  3
B0
350
3F1
  3
B1
350
3F2
  3
B2
350
3F3
  3
B3
350
3F4
  3
B4
350
3F5
  3
B5
350
3F6
  3
B6
350
3F7
  0
DICTIONARY
  5
40B
102
{ACAD_REACTORS
330
3B0
102
}
330
3B0
100
AcDbDictionary
281
     1
  3
Imperial24
350
40C
  0
DICTIONARY
  5
407
102
{ACAD_REACTORS
330
3B0
102
}
330
3B0
100
AcDbDictionary
281
     1
  3
Standard
350
408
  0
DICTIONARY
  5
3CD
102
{ACAD_REACTORS
330
3B0
102
}
330
3B0
100
AcDbDictionary
281
     1
  3
2dWireframe
350
3D3
  3
Basic
350
3D2
  3
Brighten
350
3D9
  3
ColorChange
350
3DD
  3
Conceptual
350
3D6
  3
Dim
350
3D8
  3
EdgeColorOff
350
3E5
  3
Facepattern
350
3DC
  3
Flat
350
3CE
  3
FlatWithEdges
350
3CF
  3
Gouraud
350
3D0
  3
GouraudWithEdges
350
3D1
  3
Hidden
350
3D5
  3
JitterOff
350
3E3
  3
Linepattern
350
3DB
  3
OverhangOff
350
3E4
  3
Realistic
350
3D7
  3
Shaded
350
3E2
  3
Shaded with edges
350
3E1
  3
Shades of Gray
350
3DE
  3
Sketchy
350
3DF
  3
Thicken
350
3DA
  3
Wireframe
350
3D4
  3
X-Ray
350
3E0
  0
XRECORD
  5
445
102
{ACAD_REACTORS
330
3B0
102
}
330
3B0
100
AcDbXrecord
280
     1
 90
        1
330
408
  0
DICTIONARY
  5
438
102
{ACAD_REACTORS
330
3B0
102
}
330
3B0
100
AcDbDictionary
281
     1
  3
CANNOSCALE
350
43D
  3
CMLEADERSTYLE
350
43A
  3
CTABLESTYLE
350
439
  3
CVIEWDETAILSTYLE
350
43B
  3
CVIEWSECTIONSTYLE
350
43C
  3
DIMASSOC
350
440
  3
INDEXCTL
350
43F
  3
SORTENTS
350
43E
  3
XCLIPFRAME
350
441
  0
XRECORD
  5
446
102
{ACAD_REACTORS
330
3B0
102
}
330
3B0
100
AcDbXrecord
280
     1
  1
DWGPROPS COOKIE
  2

  3

  4

  6

  7

  8
sasaki_n
  9

300
=
301
=
302
=
303
=
304
=
305
=
306
=
307
=
308
=
309
=
 40
0.0003240740740741
 41
2457899.660347222
 42
2457899.660740741
  1

 90
        0
  0
XRECORD
  5
42F
102
{ACAD_REACTORS
330
42E
102
}
330
42E
100
AcDbXrecord
280
     1
290
     1
  0
XRECORD
  5
431
102
{ACAD_REACTORS
330
430
102
}
330
430
100
AcDbXrecord
280
     1
290
     1
  0
XRECORD
  5
433
102
{ACAD_REACTORS
330
432
102
}
330
432
100
AcDbXrecord
280
     1
290
     1
  0
XRECORD
  5
435
102
{ACAD_REACTORS
330
434
102
}
330
434
100
AcDbXrecord
280
     1
290
     1
  0
XRECORD
  5
437
102
{ACAD_REACTORS
330
436
102
}
330
436
100
AcDbXrecord
280
     1
290
     1
  0
ACDBDETAILVIEWSTYLE
  5
40E
102
{ACAD_XDICTIONARY
360
47E
102
}
102
{ACAD_REACTORS
330
40D
102
}
330
40D
100
AcDbModelDocViewStyle
 70
     0
  3
Imperial24
290
     0
100
AcDbDetailViewStyle
 70
     0
 71
     0
 90
        3
 71
     1
340
3F9
 40
0.24
340
0
 40
0.24
300

 40
0.36
280
     3
 71
     2
340
400
 90
       25
 71
     3
340
3F9
 40
0.24
 90
        1
 40
0.75
 90
        1
300
%<\AcVar ViewType \f "%tc1">% %<\AcVar ViewDetailId>%\PSCALE %<\AcVar ViewScale \f "%sn">%
 71
     4
340
400
 90
       25
340
400
 90
       25
280
     0
  0
LAYOUT
  5
416
102
{ACAD_XDICTIONARY
360
482
102
}
102
{ACAD_REACTORS
330
405
102
}
330
405
100
AcDbPlotSettings
  1

  2
DocuPrint 3000-2
  4

  6

 40
0.0
 41
0.0
 42
0.0
 43
0.0
 44
0.0
 45
0.0
 46
0.0
 47
0.0
 48
0.0
 49
0.0
140
0.0
141
0.0
142
1.0
143
1.0
 70
  1712
 72
     0
 73
     0
 74
     0
  7

 75
     0
147
1.0
148
0.0
149
0.0
100
AcDbLayout
  1
Model
 70
     1
 71
     0
 10
0.0
 20
0.0
 11
12.0
 21
9.0
 12
0.0
 22
0.0
 32
0.0
 14
0.0
 24
0.0
 34
0.0
 15
0.0
 25
0.0
 35
0.0
146
0.0
 13
0.0
 23
0.0
 33
0.0
 16
1.0
 26
0.0
 36
0.0
 17
0.0
 27
1.0
 37
0.0
 76
     0
330
413
331
418
  0
LAYOUT
  5
412
102
{ACAD_XDICTIONARY
360
480
102
}
102
{ACAD_REACTORS
330
405
102
}
330
405
100
AcDbPlotSettings
  1

  2
DocuPrint 3000-2
  4

  6

 40
0.0
 41
0.0
 42
0.0
 43
0.0
 44
0.0
 45
0.0
 46
0.0
 47
0.0
 48
0.0
 49
0.0
140
0.0
141
0.0
142
1.0
143
1.0
 70
   688
 72
     0
 73
     0
 74
     5
  7

 75
    16
147
1.0
148
0.0
149
0.0
100
AcDbLayout
  1
レイアウト1
 70
     0
 71
     1
 10
0.0
 20
0.0
 11
12.0
 21
9.0
 12
0.0
 22
0.0
 32
0.0
 14
1.000000000000000E+20
 24
1.000000000000000E+20
 34
1.000000000000000E+20
 15
-1.000000000000000E+20
 25
-1.000000000000000E+20
 35
-1.000000000000000E+20
146
0.0
 13
0.0
 23
0.0
 33
0.0
 16
1.0
 26
0.0
 36
0.0
 17
0.0
 27
1.0
 37
0.0
 76
     0
330
40F
  0
MATERIAL
  5
3BD
102
{ACAD_XDICTIONARY
360
3BE
102
}
102
{ACAD_REACTORS
330
3B4
102
}
330
3B4
100
AcDbMaterial
  1
ByBlock
 72
     0
 43
0.0208333333333333
 43
0.0
 43
0.0
 43
0.0
 43
0.0
 43
0.0208333333333333
 43
0.0
 43
0.0
 43
0.0
 43
0.0
 43
1.0
 43
0.0
 43
0.0
 43
0.0
 43
0.0
 43
1.0
 77
     0
 47
0.0208333333333333
 47
0.0
 47
0.0
 47
0.0
 47
0.0
 47
0.0208333333333333
 47
0.0
 47
0.0
 47
0.0
 47
0.0
 47
1.0
 47
0.0
 47
0.0
 47
0.0
 47
0.0
 47
1.0
171
     0
 49
0.0208333333333333
 49
0.0
 49
0.0
 49
0.0
 49
0.0
 49
0.0208333333333333
 49
0.0
 49
0.0
 49
0.0
 49
0.0
 49
1.0
 49
0.0
 49
0.0
 49
0.0
 49
0.0
 49
1.0
175
     0
142
0.0208333333333333
142
0.0
142
0.0
142
0.0
142
0.0
142
0.0208333333333333
142
0.0
142
0.0
142
0.0
142
0.0
142
1.0
142
0.0
142
0.0
142
0.0
142
0.0
142
1.0
179
     0
144
0.0208333333333333
144
0.0
144
0.0
144
0.0
144
0.0
144
0.0208333333333333
144
0.0
144
0.0
144
0.0
144
0.0
144
1.0
144
0.0
144
0.0
144
0.0
144
0.0
144
1.0
147
0.0208333333333333
147
0.0
147
0.0
147
0.0
147
0.0
147
0.0208333333333333
147
0.0
147
0.0
147
0.0
147
0.0
147
1.0
147
0.0
147
0.0
147
0.0
147
0.0
147
1.0
  0
MATERIAL
  5
3B5
102
{ACAD_XDICTIONARY
360
3B6
102
}
102
{ACAD_REACTORS
330
3B4
102
}
330
3B4
100
AcDbMaterial
  1
ByLayer
 72
     0
 43
0.0208333333333333
 43
0.0
 43
0.0
 43
0.0
 43
0.0
 43
0.0208333333333333
 43
0.0
 43
0.0
 43
0.0
 43
0.0
 43
1.0
 43
0.0
 43
0.0
 43
0.0
 43
0.0
 43
1.0
 77
     0
 47
0.0208333333333333
 47
0.0
 47
0.0
 47
0.0
 47
0.0
 47
0.0208333333333333
 47
0.0
 47
0.0
 47
0.0
 47
0.0
 47
1.0
 47
0.0
 47
0.0
 47
0.0
 47
0.0
 47
1.0
171
     0
 49
0.0208333333333333
 49
0.0
 49
0.0
 49
0.0
 49
0.0
 49
0.0208333333333333
 49
0.0
 49
0.0
 49
0.0
 49
0.0
 49
1.0
 49
0.0
 49
0.0
 49
0.0
 49
0.0
 49
1.0
175
     0
142
0.0208333333333333
142
0.0
142
0.0
142
0.0
142
0.0
142
0.0208333333333333
142
0.0
142
0.0
142
0.0
142
0.0
142
1.0
142
0.0
142
0.0
142
0.0
142
0.0
142
1.0
179
     0
144
0.0208333333333333
144
0.0
144
0.0
144
0.0
144
0.0
144
0.0208333333333333
144
0.0
144
0.0
144
0.0
144
0.0
144
1.0
144
0.0
144
0.0
144
0.0
144
0.0
144
1.0
147
0.0208333333333333
147
0.0
147
0.0
147
0.0
147
0.0
147
0.0208333333333333
147
0.0
147
0.0
147
0.0
147
0.0
147
1.0
147
0.0
147
0.0
147
0.0
147
0.0
147
1.0
  0
MATERIAL
  5
3C5
102
{ACAD_XDICTIONARY
360
3C6
102
}
102
{ACAD_REACTORS
330
3B4
102
}
330
3B4
100
AcDbMaterial
  1
Global
 72
     0
 43
0.0208333333333333
 43
0.0
 43
0.0
 43
0.0
 43
0.0
 43
0.0208333333333333
 43
0.0
 43
0.0
 43
0.0
 43
0.0
 43
1.0
 43
0.0
 43
0.0
 43
0.0
 43
0.0
 43
1.0
 77
     0
 47
0.0208333333333333
 47
0.0
 47
0.0
 47
0.0
 47
0.0
 47
0.0208333333333333
 47
0.0
 47
0.0
 47
0.0
 47
0.0
 47
1.0
 47
0.0
 47
0.0
 47
0.0
 47
0.0
 47
1.0
171
     0
 49
0.0208333333333333
 49
0.0
 49
0.0
 49
0.0
 49
0.0
 49
0.0208333333333333
 49
0.0
 49
0.0
 49
0.0
 49
0.0
 49
1.0
 49
0.0
 49
0.0
 49
0.0
 49
0.0
 49
1.0
175
     0
142
0.0208333333333333
142
0.0
142
0.0
142
0.0
142
0.0
142
0.0208333333333333
142
0.0
142
0.0
142
0.0
142
0.0
142
1.0
142
0.0
142
0.0
142
0.0
142
0.0
142
1.0
179
     0
144
0.0208333333333333
144
0.0
144
0.0
144
0.0
144
0.0
144
0.0208333333333333
144
0.0
144
0.0
144
0.0
144
0.0
144
1.0
144
0.0
144
0.0
144
0.0
144
0.0
144
1.0
147
0.0208333333333333
147
0.0
147
0.0
147
0.0
147
0.0
147
0.0208333333333333
147
0.0
147
0.0
147
0.0
147
0.0
147
1.0
147
0.0
147
0.0
147
0.0
147
0.0
147
1.0
  0
MLEADERSTYLE
  5
40A
102
{ACAD_REACTORS
330
409
102
}
330
409
100
AcDbMLeaderStyle
170
     2
171
     1
172
     0
 90
        2
 40
0.0
 41
0.0
173
     1
 91
-1056964608
340
3FE
 92
       -2
290
     1
 42
0.09
291
     1
 43
0.36
  3
Standard
 44
0.18
300

342
3F9
174
     1
178
     6
175
     1
176
     0
 93
-1056964608
 45
0.18
292
     0
297
     0
 46
0.18
 94
-1056964608
 47
1.0
 49
1.0
140
1.0
293
     1
141
0.0
294
     1
177
     0
142
1.0
295
     0
296
     0
143
0.125
1001
ACAD_MLEADERVER
1070
     2
  0
MLINESTYLE
  5
403
102
{ACAD_REACTORS
330
402
102
}
330
402
100
AcDbMlineStyle
  2
STANDARD
 70
     0
  3

 62
   256
 51
90.0
 52
90.0
 71
     2
 49
0.5
 62
   256
  6
BYLAYER
 49
-0.5
 62
   256
  6
BYLAYER
  0
ACDBPLACEHOLDER
  5
3B3
102
{ACAD_REACTORS
330
3B2
102
}
330
3B2
  0
SCALE
  5
3E7
102
{ACAD_REACTORS
330
3E6
102
}
330
3E6
100
AcDbScale
 70
     0
300
1:1
140
1.0
141
1.0
290
     1
  0
SCALE
  5
3E8
102
{ACAD_REACTORS
330
3E6
102
}
330
3E6
100
AcDbScale
 70
     0
300
1/128" = 1'-0"
140
0.0078125
141
12.0
290
     0
  0
SCALE
  5
3E9
102
{ACAD_REACTORS
330
3E6
102
}
330
3E6
100
AcDbScale
 70
     0
300
1/64" = 1'-0"
140
0.015625
141
12.0
290
     0
  0
SCALE
  5
3EA
102
{ACAD_REACTORS
330
3E6
102
}
330
3E6
100
AcDbScale
 70
     0
300
1/32" = 1'-0"
140
0.03125
141
12.0
290
     0
  0
SCALE
  5
3EB
102
{ACAD_REACTORS
330
3E6
102
}
330
3E6
100
AcDbScale
 70
     0
300
1/16" = 1'-0"
140
0.0625
141
12.0
290
     0
  0
SCALE
  5
3EC
102
{ACAD_REACTORS
330
3E6
102
}
330
3E6
100
AcDbScale
 70
     0
300
3/32" = 1'-0"
140
0.09375
141
12.0
290
     0
  0
SCALE
  5
3ED
102
{ACAD_REACTORS
330
3E6
102
}
330
3E6
100
AcDbScale
 70
     0
300
1/8" = 1'-0"
140
0.125
141
12.0
290
     0
  0
SCALE
  5
3EE
102
{ACAD_REACTORS
330
3E6
102
}
330
3E6
100
AcDbScale
 70
     0
300
3/16" = 1'-0"
140
0.1875
141
12.0
290
     0
  0
SCALE
  5
3EF
102
{ACAD_REACTORS
330
3E6
102
}
330
3E6
100
AcDbScale
 70
     0
300
1/4" = 1'-0"
140
0.25
141
12.0
290
     0
  0
SCALE
  5
3F0
102
{ACAD_REACTORS
330
3E6
102
}
330
3E6
100
AcDbScale
 70
     0
300
3/8" = 1'-0"
140
0.375
141
12.0
290
     0
  0
SCALE
  5
3F1
102
{ACAD_REACTORS
330
3E6
102
}
330
3E6
100
AcDbScale
 70
     0
300
1/2" = 1'-0"
140
0.5
141
12.0
290
     0
  0
SCALE
  5
3F2
102
{ACAD_REACTORS
330
3E6
102
}
330
3E6
100
AcDbScale
 70
     0
300
3/4" = 1'-0"
140
0.75
141
12.0
290
     0
  0
SCALE
  5
3F3
102
{ACAD_REACTORS
330
3E6
102
}
330
3E6
100
AcDbScale
 70
     0
300
1" = 1'-0"
140
1.0
141
12.0
290
     0
  0
SCALE
  5
3F4
102
{ACAD_REACTORS
330
3E6
102
}
330
3E6
100
AcDbScale
 70
     0
300
1-1/2" = 1'-0"
140
1.5
141
12.0
290
     0
  0
SCALE
  5
3F5
102
{ACAD_REACTORS
330
3E6
102
}
330
3E6
100
AcDbScale
 70
     0
300
3" = 1'-0"
140
3.0
141
12.0
290
     0
  0
SCALE
  5
3F6
102
{ACAD_REACTORS
330
3E6
102
}
330
3E6
100
AcDbScale
 70
     0
300
6" = 1'-0"
140
6.0
141
12.0
290
     0
  0
SCALE
  5
3F7
102
{ACAD_REACTORS
330
3E6
102
}
330
3E6
100
AcDbScale
 70
     0
300
1'-0" = 1'-0"
140
12.0
141
12.0
290
     0
  0
ACDBSECTIONVIEWSTYLE
  5
40C
102
{ACAD_XDICTIONARY
360
47C
102
}
102
{ACAD_REACTORS
330
40B
102
}
330
40B
100
AcDbModelDocViewStyle
 70
     0
  3
Imperial24
290
     0
100
AcDbSectionViewStyle
 70
     0
 71
     0
 90
       78
 71
     1
340
3F9
 40
0.24
340
0
340
0
 40
0.24
300
I, O, Q, S, X, Z
 40
0.48
 90
        3
 40
0.18
 90
        1
 71
     2
340
400
 90
       25
340
400
 90
       50
 40
0.24
 40
0.0
 40
0.24
 71
     3
340
3F9
 40
0.24
 90
        1
 40
0.75
 90
        1
300
%<\AcVar ViewType \f "%tc1">% %<\AcVar ViewSectionStartId>%-%<\AcVar ViewSectionEndId>%\PSCALE %<\AcVar ViewScale \f "%sn">%
 71
     4
300
ANSI31
 40
1.0
 90
        0
290
     0
290
     0
 90
        6
 40
0.0
 40
1.570796326794896
 40
0.2617993877991494
 40
1.308996938995747
 40
-0.2617993877991494
 40
1.832595714594046
  0
TABLESTYLE
  5
408
102
{ACAD_XDICTIONARY
360
443
102
}
102
{ACAD_REACTORS
330
407
102
}
330
407
100
AcDbTableStyle
  3
Standard
 70
     0
 71
     0
 40
0.06
 41
0.06
280
     0
281
     0
  7
STANDARD
140
0.18
170
     2
 62
     0
 63
     7
283
     0
274
    -2
284
     1
 64
     0
275
    -2
285
     1
 65
     0
276
    -2
286
     1
 66
     0
277
    -2
287
     1
 67
     0
278
    -2
288
     1
 68
     0
279
    -2
289
     1
 69
     0
  7
STANDARD
140
0.25
170
     5
 62
     0
 63
     7
283
     0
274
    -2
284
     1
 64
     0
275
    -2
285
     1
 65
     0
276
    -2
286
     1
 66
     0
277
    -2
287
     1
 67
     0
278
    -2
288
     1
 68
     0
279
    -2
289
     1
 69
     0
  7
STANDARD
140
0.18
170
     5
 62
     0
 63
     7
283
     0
274
    -2
284
     1
 64
     0
275
    -2
285
     1
 65
     0
276
    -2
286
     1
 66
     0
277
    -2
287
     1
 67
     0
278
    -2
288
     1
 68
     0
279
    -2
289
     1
 69
     0
  0
VISUALSTYLE
  5
3D3
102
{ACAD_XDICTIONARY
360
454
102
}
102
{ACAD_REACTORS
330
3CD
102
}
330
3CD
100
AcDbVisualStyle
  2
2dWireframe
 70
     4
 71
     0
 72
     2
 73
     0
 90
        0
 40
-0.6
 41
-30.0
 62
     5
 63
     7
 74
     1
 91
        4
 64
     7
 65
   257
 75
     1
175
     1
 42
1.0
 92
        0
 66
   257
 43
1.0
 76
     1
 77
     6
 78
     2
 67
     7
 79
     5
170
     0
171
     0
290
     0
174
     0
 93
        1
 44
0.0
173
     0
291
     0
 45
0.0
1001
ACAD
1000
AcDbSavedByObjectVersion
1070
     0
  0
VISUALSTYLE
  5
3D2
102
{ACAD_XDICTIONARY
360
452
102
}
102
{ACAD_REACTORS
330
3CD
102
}
330
3CD
100
AcDbVisualStyle
  2
Basic
 70
     7
 71
     1
 72
     0
 73
     1
 90
        0
 40
-0.6
 41
-30.0
 62
     5
 63
     7
 74
     0
 91
        4
 64
     7
 65
   257
 75
     1
175
     1
 42
1.0
 92
        8
 66
     7
 43
1.0
 76
     1
 77
     6
 78
     2
 67
     7
 79
     5
170
     0
171
     0
290
     0
174
     0
 93
        1
 44
0.0
173
     0
291
     1
 45
0.0
1001
ACAD
1000
AcDbSavedByObjectVersion
1070
     0
  0
VISUALSTYLE
  5
3D9
102
{ACAD_XDICTIONARY
360
460
102
}
102
{ACAD_REACTORS
330
3CD
102
}
330
3CD
100
AcDbVisualStyle
  2
Brighten
 70
    12
 71
     2
 72
     2
 73
     0
 90
        0
 40
-0.6
 41
-30.0
 62
     5
 63
     7
 74
     1
 91
        4
 64
     7
 65
   257
 75
     1
175
     1
 42
1.0
 92
        8
 66
     7
 43
1.0
 76
     1
 77
     6
 78
     2
 67
     7
 79
     5
170
     0
171
     0
290
     0
174
     0
 93
        1
 44
50.0
173
     0
291
     1
 45
0.0
1001
ACAD
1000
AcDbSavedByObjectVersion
1070
     0
  0
VISUALSTYLE
  5
3DD
102
{ACAD_XDICTIONARY
360
468
102
}
102
{ACAD_REACTORS
330
3CD
102
}
330
3CD
100
AcDbVisualStyle
  2
ColorChange
 70
    16
 71
     2
 72
     2
 73
     3
 90
        0
 40
-0.6
 41
-30.0
 62
     5
 63
     8
 74
     1
 91
        4
 64
     7
 65
   257
 75
     1
175
     1
 42
1.0
 92
        8
 66
     8
 43
1.0
 76
     1
 77
     6
 78
     2
 67
     7
 79
     5
170
     0
171
     0
290
     0
174
     0
 93
        1
 44
0.0
173
     0
291
     1
 45
0.0
1001
ACAD
1000
AcDbSavedByObjectVersion
1070
     0
  0
VISUALSTYLE
  5
3D6
102
{ACAD_XDICTIONARY
360
45A
102
}
102
{ACAD_REACTORS
330
3CD
102
}
330
3CD
100
AcDbVisualStyle
  2
Conceptual
 70
     9
 71
     3
 72
     2
 73
     0
 90
        0
 40
-0.6
 41
-30.0
 62
     5
 63
     7
 74
     2
 91
        2
 64
     7
 65
   257
 75
     1
175
     1
 42
179.0
 92
        8
 66
     7
 43
1.0
 76
     1
 77
     6
 78
     2
 67
     7
 79
     3
170
     0
171
     0
290
     0
174
     0
 93
        1
 44
0.0
173
     0
291
     0
 45
0.0
1001
ACAD
1000
AcDbSavedByObjectVersion
1070
     0
  0
VISUALSTYLE
  5
3D8
102
{ACAD_XDICTIONARY
360
45E
102
}
102
{ACAD_REACTORS
330
3CD
102
}
330
3CD
100
AcDbVisualStyle
  2
Dim
 70
    11
 71
     2
 72
     2
 73
     0
 90
        0
 40
-0.6
 41
-30.0
 62
     5
 63
     7
 74
     1
 91
        4
 64
     7
 65
   257
 75
     1
175
     1
 42
1.0
 92
        8
 66
     7
 43
1.0
 76
     1
 77
     6
 78
     2
 67
     7
 79
     5
170
     0
171
     0
290
     0
174
     0
 93
        1
 44
-50.0
173
     0
291
     1
 45
0.0
1001
ACAD
1000
AcDbSavedByObjectVersion
1070
     0
  0
VISUALSTYLE
  5
3E5
102
{ACAD_XDICTIONARY
360
478
102
}
102
{ACAD_REACTORS
330
3CD
102
}
330
3CD
100
AcDbVisualStyle
  2
EdgeColorOff
 70
    22
 71
     2
 72
     2
 73
     0
 90
        0
 40
-0.6
 41
-30.0
 62
     5
 63
     7
 74
     1
 91
        4
 64
     7
 65
   257
 75
     1
175
     1
 42
1.0
 92
        8
 66
     7
 43
1.0
 76
     1
 77
     6
 78
     2
 67
     7
 79
     5
170
     0
171
     0
290
     0
174
     0
 93
        1
 44
0.0
173
     0
291
     1
 45
0.0
1001
ACAD
1000
AcDbSavedByObjectVersion
1070
     0
  0
VISUALSTYLE
  5
3DC
102
{ACAD_XDICTIONARY
360
466
102
}
102
{ACAD_REACTORS
330
3CD
102
}
330
3CD
100
AcDbVisualStyle
  2
Facepattern
 70
    15
 71
     2
 72
     2
 73
     0
 90
        0
 40
-0.6
 41
-30.0
 62
     5
 63
     7
 74
     1
 91
        4
 64
     7
 65
   257
 75
     1
175
     1
 42
1.0
 92
        8
 66
     7
 43
1.0
 76
     1
 77
     6
 78
     2
 67
     7
 79
     5
170
     0
171
     0
290
     0
174
     0
 93
        1
 44
0.0
173
     0
291
     1
 45
0.0
1001
ACAD
1000
AcDbSavedByObjectVersion
1070
     0
  0
VISUALSTYLE
  5
3CE
102
{ACAD_XDICTIONARY
360
44A
102
}
102
{ACAD_REACTORS
330
3CD
102
}
330
3CD
100
AcDbVisualStyle
  2
Flat
 70
     0
 71
     2
 72
     1
 73
     1
 90
        2
 40
-0.6
 41
30.0
 62
     5
 63
     7
 74
     0
 91
        0
 64
     7
 65
   257
 75
     1
175
     1
 42
1.0
 92
        8
 66
     7
 43
1.0
 76
     1
 77
     6
 78
     2
 67
     7
 79
     5
170
     0
171
     0
290
     0
174
     0
 93
       13
 44
0.0
173
     0
291
     1
 45
0.0
1001
ACAD
1000
AcDbSavedByObjectVersion
1070
     0
  0
VISUALSTYLE
  5
3CF
102
{ACAD_XDICTIONARY
360
44C
102
}
102
{ACAD_REACTORS
330
3CD
102
}
330
3CD
100
AcDbVisualStyle
  2
FlatWithEdges
 70
     1
 71
     2
 72
     1
 73
     1
 90
        2
 40
-0.6
 41
30.0
 62
     5
 63
     7
 74
     1
 91
        0
 64
     7
 65
   257
 75
     1
175
     1
 42
1.0
 92
        0
 66
   257
 43
1.0
 76
     1
 77
     6
 78
     2
 67
     7
 79
     5
170
     0
171
     0
290
     0
174
     0
 93
       13
 44
0.0
173
     0
291
     1
 45
0.0
1001
ACAD
1000
AcDbSavedByObjectVersion
1070
     0
  0
VISUALSTYLE
  5
3D0
102
{ACAD_XDICTIONARY
360
44E
102
}
102
{ACAD_REACTORS
330
3CD
102
}
330
3CD
100
AcDbVisualStyle
  2
Gouraud
 70
     2
 71
     2
 72
     2
 73
     1
 90
        2
 40
-0.6
 41
30.0
 62
     5
 63
     7
 74
     0
 91
        0
 64
     7
 65
   257
 75
     1
175
     1
 42
1.0
 92
        0
 66
     7
 43
1.0
 76
     1
 77
     6
 78
     2
 67
     7
 79
     5
170
     0
171
     0
290
     0
174
     0
 93
       13
 44
0.0
173
     0
291
     1
 45
0.0
1001
ACAD
1000
AcDbSavedByObjectVersion
1070
     0
  0
VISUALSTYLE
  5
3D1
102
{ACAD_XDICTIONARY
360
450
102
}
102
{ACAD_REACTORS
330
3CD
102
}
330
3CD
100
AcDbVisualStyle
  2
GouraudWithEdges
 70
     3
 71
     2
 72
     2
 73
     1
 90
        2
 40
-0.6
 41
30.0
 62
     5
 63
     7
 74
     1
 91
        0
 64
     7
 65
   257
 75
     1
175
     1
 42
1.0
 92
        0
 66
   257
 43
1.0
 76
     1
 77
     6
 78
     2
 67
     7
 79
     5
170
     0
171
     0
290
     0
174
     0
 93
       13
 44
0.0
173
     0
291
     1
 45
0.0
1001
ACAD
1000
AcDbSavedByObjectVersion
1070
     0
  0
VISUALSTYLE
  5
3D5
102
{ACAD_XDICTIONARY
360
458
102
}
102
{ACAD_REACTORS
330
3CD
102
}
330
3CD
100
AcDbVisualStyle
  2
Hidden
 70
     6
 71
     1
 72
     2
 73
     2
 90
        0
 40
-0.6
 41
-30.0
 62
     5
 63
     7
 74
     2
 91
        2
 64
     7
 65
   257
 75
     2
175
     1
 42
40.0
 92
        0
 66
   257
 43
1.0
 76
     1
 77
     6
 78
     2
 67
     7
 79
     3
170
     0
171
     0
290
     0
174
     0
 93
        1
 44
0.0
173
     0
291
     0
 45
0.0
1001
ACAD
1000
AcDbSavedByObjectVersion
1070
     0
  0
VISUALSTYLE
  5
3E3
102
{ACAD_XDICTIONARY
360
474
102
}
102
{ACAD_REACTORS
330
3CD
102
}
330
3CD
100
AcDbVisualStyle
  2
JitterOff
 70
    20
 71
     2
 72
     2
 73
     0
 90
        0
 40
-0.6
 41
-30.0
 62
     5
 63
     7
 74
     1
 91
        4
 64
     7
 65
   257
 75
     1
175
     1
 42
1.0
 92
       10
 66
     7
 43
1.0
 76
     1
 77
     6
 78
     2
 67
     7
 79
     5
170
     0
171
     0
290
     0
174
     0
 93
        1
 44
0.0
173
     0
291
     1
 45
0.0
1001
ACAD
1000
AcDbSavedByObjectVersion
1070
     0
  0
VISUALSTYLE
  5
3DB
102
{ACAD_XDICTIONARY
360
464
102
}
102
{ACAD_REACTORS
330
3CD
102
}
330
3CD
100
AcDbVisualStyle
  2
Linepattern
 70
    14
 71
     2
 72
     2
 73
     0
 90
        0
 40
-0.6
 41
-30.0
 62
     5
 63
     7
 74
     1
 91
        4
 64
     7
 65
   257
 75
     7
175
     7
 42
1.0
 92
        8
 66
     7
 43
1.0
 76
     1
 77
     6
 78
     2
 67
     7
 79
     5
170
     0
171
     0
290
     0
174
     0
 93
        1
 44
0.0
173
     0
291
     1
 45
0.0
1001
ACAD
1000
AcDbSavedByObjectVersion
1070
     0
  0
VISUALSTYLE
  5
3E4
102
{ACAD_XDICTIONARY
360
476
102
}
102
{ACAD_REACTORS
330
3CD
102
}
330
3CD
100
AcDbVisualStyle
  2
OverhangOff
 70
    21
 71
     2
 72
     2
 73
     0
 90
        0
 40
-0.6
 41
-30.0
 62
     5
 63
     7
 74
     1
 91
        4
 64
     7
 65
   257
 75
     1
175
     1
 42
1.0
 92
        9
 66
     7
 43
1.0
 76
     1
 77
     6
 78
     2
 67
     7
 79
     5
170
     0
171
     0
290
     0
174
     0
 93
        1
 44
0.0
173
     0
291
     1
 45
0.0
1001
ACAD
1000
AcDbSavedByObjectVersion
1070
     0
  0
VISUALSTYLE
  5
3D7
102
{ACAD_XDICTIONARY
360
45C
102
}
102
{ACAD_REACTORS
330
3CD
102
}
330
3CD
100
AcDbVisualStyle
  2
Realistic
 70
     8
 71
     2
 72
     3
 73
     0
 90
        2
 40
-0.6
 41
30.0
 62
     5
 63
     7
 74
     0
 91
        0
 64
     7
 65
   257
 75
     1
175
     1
 42
1.0
 92
        8
 66
   257
 43
1.0
 76
     1
 77
     6
 78
     2
 67
     7
 79
     3
170
     0
171
     0
290
     0
174
     0
 93
       13
 44
0.0
173
     0
291
     0
 45
0.0
1001
ACAD
1000
AcDbSavedByObjectVersion
1070
     0
  0
VISUALSTYLE
  5
3E2
102
{ACAD_XDICTIONARY
360
472
102
}
102
{ACAD_REACTORS
330
3CD
102
}
330
3CD
100
AcDbVisualStyle
  2
Shaded
 70
    27
 71
     2
 72
     2
 73
     1
 90
        2
 40
-0.6
 41
30.0
 62
     5
 63
     7
 74
     0
 91
        4
 64
     7
 65
   257
 75
     1
175
     1
 42
1.0
 92
        8
 66
   257
 43
1.0
 76
     1
 77
     6
 78
     2
 67
     8
 79
     3
170
     0
171
     0
290
     0
174
     0
 93
        5
 44
0.0
173
     0
291
     0
 45
0.0
1001
ACAD
1000
AcDbSavedByObjectVersion
1070
     0
  0
VISUALSTYLE
  5
3E1
102
{ACAD_XDICTIONARY
360
470
102
}
102
{ACAD_REACTORS
330
3CD
102
}
330
3CD
100
AcDbVisualStyle
  2
Shaded with edges
 70
    26
 71
     2
 72
     2
 73
     1
 90
        2
 40
-0.6
 41
30.0
 62
     5
 63
     7
 74
     1
 91
        2
 64
     7
 65
   257
 75
     2
175
     1
 42
1.0
 92
        8
 66
   257
 43
1.0
 76
     1
 77
     6
 78
     2
 67
     7
 79
     3
170
     0
171
     0
290
     0
174
     0
 93
        5
 44
0.0
173
     0
291
     0
 45
0.0
1001
ACAD
1000
AcDbSavedByObjectVersion
1070
     0
  0
VISUALSTYLE
  5
3DE
102
{ACAD_XDICTIONARY
360
46A
102
}
102
{ACAD_REACTORS
330
3CD
102
}
330
3CD
100
AcDbVisualStyle
  2
Shades of Gray
 70
    23
 71
     2
 72
     2
 73
     3
 90
        0
 40
-0.6
 41
-30.0
 62
     5
 63
     7
 74
     2
 91
        2
 64
     7
 65
     7
 75
     1
175
     1
 42
40.0
 92
        8
 66
     7
 43
1.0
 76
     1
 77
     6
 78
     2
 67
     7
 79
     3
170
     0
171
     0
290
     0
174
     0
 93
        1
 44
0.0
173
     0
291
     0
 45
0.0
1001
ACAD
1000
AcDbSavedByObjectVersion
1070
     0
  0
VISUALSTYLE
  5
3DF
102
{ACAD_XDICTIONARY
360
46C
102
}
102
{ACAD_REACTORS
330
3CD
102
}
330
3CD
100
AcDbVisualStyle
  2
Sketchy
 70
    24
 71
     1
 72
     2
 73
     2
 90
        0
 40
-0.6
 41
-30.0
 62
     5
 63
     7
 74
     2
 91
        2
 64
     7
 65
     7
 75
     1
175
     1
 42
40.0
 92
       11
 66
     7
 43
1.0
 76
     1
 77
     6
 78
     2
 67
     7
 79
     6
170
     0
171
     0
290
     0
174
     0
 93
        1
 44
0.0
173
     0
291
     0
 45
0.0
1001
ACAD
1000
AcDbSavedByObjectVersion
1070
     0
  0
VISUALSTYLE
  5
3DA
102
{ACAD_XDICTIONARY
360
462
102
}
102
{ACAD_REACTORS
330
3CD
102
}
330
3CD
100
AcDbVisualStyle
  2
Thicken
 70
    13
 71
     2
 72
     2
 73
     0
 90
        0
 40
-0.6
 41
-30.0
 62
     5
 63
     7
 74
     1
 91
        4
 64
     7
 65
   257
 75
     1
175
     1
 42
1.0
 92
       12
 66
     7
 43
1.0
 76
     1
 77
     6
 78
     2
 67
     7
 79
     5
170
     0
171
     0
290
     0
174
     0
 93
        1
 44
0.0
173
     0
291
     1
 45
0.0
1001
ACAD
1000
AcDbSavedByObjectVersion
1070
     0
  0
VISUALSTYLE
  5
3D4
102
{ACAD_XDICTIONARY
360
456
102
}
102
{ACAD_REACTORS
330
3CD
102
}
330
3CD
100
AcDbVisualStyle
  2
Wireframe
 70
     5
 71
     0
 72
     2
 73
     0
 90
        0
 40
-0.6
 41
-30.0
 62
     5
 63
     7
 74
     1
 91
        4
 64
     7
 65
   257
 75
     1
175
     1
 42
1.0
 92
        0
 66
   257
 43
1.0
 76
     1
 77
     6
 78
     2
 67
     7
 79
     3
170
     0
171
     0
290
     0
174
     0
 93
        1
 44
0.0
173
     0
291
     0
 45
0.0
1001
ACAD
1000
AcDbSavedByObjectVersion
1070
     0
  0
VISUALSTYLE
  5
3E0
102
{ACAD_XDICTIONARY
360
46E
102
}
102
{ACAD_REACTORS
330
3CD
102
}
330
3CD
100
AcDbVisualStyle
  2
X-Ray
 70
    25
 71
     2
 72
     2
 73
     1
 90
        1
 40
0.5
 41
-30.0
 62
     5
 63
     7
 74
     1
 91
        0
 64
     7
 65
   257
 75
     1
175
     1
 42
1.0
 92
        8
 66
     7
 43
1.0
 76
     1
 77
     6
 78
     2
 67
     7
 79
     3
170
     0
171
     0
290
     0
174
     0
 93
       13
 44
0.0
173
     0
291
     0
 45
0.0
1001
ACAD
1000
AcDbSavedByObjectVersion
1070
     0
  0
DICTIONARYVAR
  5
43D
102
{ACAD_REACTORS
330
438
102
}
330
438
100
DictionaryVariables
280
     0
  1
1:1
  0
DICTIONARYVAR
  5
43A
102
{ACAD_REACTORS
330
438
102
}
330
438
100
DictionaryVariables
280
     0
  1
STANDARD
  0
DICTIONARYVAR
  5
439
102
{ACAD_REACTORS
330
438
102
}
330
438
100
DictionaryVariables
280
     0
  1
STANDARD
  0
DICTIONARYVAR
  5
43B
102
{ACAD_REACTORS
330
438
102
}
330
438
100
DictionaryVariables
280
     0
  1
Imperial24
  0
DICTIONARYVAR
  5
43C
102
{ACAD_REACTORS
330
438
102
}
330
438
100
DictionaryVariables
280
     0
  1
Imperial24
  0
DICTIONARYVAR
  5
440
102
{ACAD_REACTORS
330
438
102
}
330
438
100
DictionaryVariables
280
     0
  1
1
  0
DICTIONARYVAR
  5
43F
102
{ACAD_REACTORS
330
438
102
}
330
438
100
DictionaryVariables
280
     0
  1
0
  0
DICTIONARYVAR
  5
43E
102
{ACAD_REACTORS
330
438
102
}
330
438
100
DictionaryVariables
280
     0
  1
127
  0
DICTIONARYVAR
  5
441
102
{ACAD_REACTORS
330
438
102
}
330
438
100
DictionaryVariables
280
     0
  1
2
  0
DICTIONARY
  5
47E
330
40E
100
AcDbDictionary
280
     1
281
     1
  3
ACAD_XREC_ROUNDTRIP
360
47F
  0
DICTIONARY
  5
482
330
416
100
AcDbDictionary
280
     1
281
     1
  3
ACAD_XREC_ROUNDTRIP
360
483
  0
DICTIONARY
  5
480
330
412
100
AcDbDictionary
280
     1
281
     1
  3
ACAD_XREC_ROUNDTRIP
360
481
  0
DICTIONARY
  5
3BE
330
3BD
100
AcDbDictionary
280
     1
281
     1
  3
ACAD_XREC_ROUNDTRIP
360
448
  3
BUMPTILE
360
3C0
  3
DIFFUSETILE
360
3BF
  3
OPACITYTILE
360
3C3
  3
REFLECTIONTILE
360
3C2
  3
REFRACTIONTILE
360
3C4
  3
SPECULARTILE
360
3C1
  0
DICTIONARY
  5
3B6
330
3B5
100
AcDbDictionary
280
     1
281
     1
  3
ACAD_XREC_ROUNDTRIP
360
447
  3
BUMPTILE
360
3B8
  3
DIFFUSETILE
360
3B7
  3
OPACITYTILE
360
3BB
  3
REFLECTIONTILE
360
3BA
  3
REFRACTIONTILE
360
3BC
  3
SPECULARTILE
360
3B9
  0
DICTIONARY
  5
3C6
330
3C5
100
AcDbDictionary
280
     1
281
     1
  3
ACAD_XREC_ROUNDTRIP
360
449
  3
BUMPTILE
360
3C8
  3
DIFFUSETILE
360
3C7
  3
OPACITYTILE
360
3CB
  3
REFLECTIONTILE
360
3CA
  3
REFRACTIONTILE
360
3CC
  3
SPECULARTILE
360
3C9
  0
DICTIONARY
  5
47C
330
40C
100
AcDbDictionary
280
     1
281
     1
  3
ACAD_XREC_ROUNDTRIP
360
47D
  0
DICTIONARY
  5
443
330
408
100
AcDbDictionary
280
     1
281
     1
  3
ACAD_ROUNDTRIP_2008_TABLESTYLE_CELLSTYLEMAP
360
444
  3
ACAD_XREC_ROUNDTRIP
360
47A
  0
DICTIONARY
  5
454
330
3D3
100
AcDbDictionary
280
     1
281
     1
  3
ACAD_XREC_ROUNDTRIP
360
455
  0
DICTIONARY
  5
452
330
3D2
100
AcDbDictionary
280
     1
281
     1
  3
ACAD_XREC_ROUNDTRIP
360
453
  0
DICTIONARY
  5
460
330
3D9
100
AcDbDictionary
280
     1
281
     1
  3
ACAD_XREC_ROUNDTRIP
360
461
  0
DICTIONARY
  5
468
330
3DD
100
AcDbDictionary
280
     1
281
     1
  3
ACAD_XREC_ROUNDTRIP
360
469
  0
DICTIONARY
  5
45A
330
3D6
100
AcDbDictionary
280
     1
281
     1
  3
ACAD_XREC_ROUNDTRIP
360
45B
  0
DICTIONARY
  5
45E
330
3D8
100
AcDbDictionary
280
     1
281
     1
  3
ACAD_XREC_ROUNDTRIP
360
45F
  0
DICTIONARY
  5
478
330
3E5
100
AcDbDictionary
280
     1
281
     1
  3
ACAD_XREC_ROUNDTRIP
360
479
  0
DICTIONARY
  5
466
330
3DC
100
AcDbDictionary
280
     1
281
     1
  3
ACAD_XREC_ROUNDTRIP
360
467
  0
DICTIONARY
  5
44A
330
3CE
100
AcDbDictionary
280
     1
281
     1
  3
ACAD_XREC_ROUNDTRIP
360
44B
  0
DICTIONARY
  5
44C
330
3CF
100
AcDbDictionary
280
     1
281
     1
  3
ACAD_XREC_ROUNDTRIP
360
44D
  0
DICTIONARY
  5
44E
330
3D0
100
AcDbDictionary
280
     1
281
     1
  3
ACAD_XREC_ROUNDTRIP
360
44F
  0
DICTIONARY
  5
450
330
3D1
100
AcDbDictionary
280
     1
281
     1
  3
ACAD_XREC_ROUNDTRIP
360
451
  0
DICTIONARY
  5
458
330
3D5
100
AcDbDictionary
280
     1
281
     1
  3
ACAD_XREC_ROUNDTRIP
360
459
  0
DICTIONARY
  5
474
330
3E3
100
AcDbDictionary
280
     1
281
     1
  3
ACAD_XREC_ROUNDTRIP
360
475
  0
DICTIONARY
  5
464
330
3DB
100
AcDbDictionary
280
     1
281
     1
  3
ACAD_XREC_ROUNDTRIP
360
465
  0
DICTIONARY
  5
476
330
3E4
100
AcDbDictionary
280
     1
281
     1
  3
ACAD_XREC_ROUNDTRIP
360
477
  0
DICTIONARY
  5
45C
330
3D7
100
AcDbDictionary
280
     1
281
     1
  3
ACAD_XREC_ROUNDTRIP
360
45D
  0
DICTIONARY
  5
472
330
3E2
100
AcDbDictionary
280
     1
281
     1
  3
ACAD_XREC_ROUNDTRIP
360
473
  0
DICTIONARY
  5
470
330
3E1
100
AcDbDictionary
280
     1
281
     1
  3
ACAD_XREC_ROUNDTRIP
360
471
  0
DICTIONARY
  5
46A
330
3DE
100
AcDbDictionary
280
     1
281
     1
  3
ACAD_XREC_ROUNDTRIP
360
46B
  0
DICTIONARY
  5
46C
330
3DF
100
AcDbDictionary
280
     1
281
     1
  3
ACAD_XREC_ROUNDTRIP
360
46D
  0
DICTIONARY
  5
462
330
3DA
100
AcDbDictionary
280
     1
281
     1
  3
ACAD_XREC_ROUNDTRIP
360
463
  0
DICTIONARY
  5
456
330
3D4
100
AcDbDictionary
280
     1
281
     1
  3
ACAD_XREC_ROUNDTRIP
360
457
  0
DICTIONARY
  5
46E
330
3E0
100
AcDbDictionary
280
     1
281
     1
  3
ACAD_XREC_ROUNDTRIP
360
46F
  0
XRECORD
  5
47F
102
{ACAD_REACTORS
330
47E
102
}
330
47E
100
AcDbXrecord
280
     1
102
DISPLAYNAME
  1
Imperial24
102
FLAGS
 90
        0
  0
XRECORD
  5
483
102
{ACAD_REACTORS
330
482
102
}
330
482
100
AcDbXrecord
280
     1
102
SHADEPLOT
 70
     0
102
SHADEPLOTRESLEVEL
 70
     2
102
SHADEPLOTCUSTOMDPI
 70
   300
  0
XRECORD
  5
481
102
{ACAD_REACTORS
330
480
102
}
330
480
100
AcDbXrecord
280
     1
102
SHADEPLOT
 70
     0
102
SHADEPLOTRESLEVEL
 70
     2
102
SHADEPLOTCUSTOMDPI
 70
   300
  0
XRECORD
  5
448
102
{ACAD_REACTORS
330
3BE
102
}
330
3BE
100
AcDbXrecord
280
     1
102
MATERIAL
148
0.0
149
0.0
149
0.0
 93
        0
 94
      127
282
     0
 72
     0
 77
     0
171
     0
175
     0
179
     0
273
     0
  0
XRECORD
  5
3C0
102
{ACAD_REACTORS
330
3BE
102
}
330
3BE
100
AcDbXrecord
280
     1
270
     1
271
     1
  0
XRECORD
  5
3BF
102
{ACAD_REACTORS
330
3BE
102
}
330
3BE
100
AcDbXrecord
280
     1
270
     1
271
     1
  0
XRECORD
  5
3C3
102
{ACAD_REACTORS
330
3BE
102
}
330
3BE
100
AcDbXrecord
280
     1
270
     1
271
     1
  0
XRECORD
  5
3C2
102
{ACAD_REACTORS
330
3BE
102
}
330
3BE
100
AcDbXrecord
280
     1
270
     1
271
     1
  0
XRECORD
  5
3C4
102
{ACAD_REACTORS
330
3BE
102
}
330
3BE
100
AcDbXrecord
280
     1
270
     1
271
     1
  0
XRECORD
  5
3C1
102
{ACAD_REACTORS
330
3BE
102
}
330
3BE
100
AcDbXrecord
280
     1
270
     1
271
     1
  0
XRECORD
  5
447
102
{ACAD_REACTORS
330
3B6
102
}
330
3B6
100
AcDbXrecord
280
     1
102
MATERIAL
148
0.0
149
0.0
149
0.0
 93
        0
 94
      127
282
     0
 72
     0
 77
     0
171
     0
175
     0
179
     0
273
     0
  0
XRECORD
  5
3B8
102
{ACAD_REACTORS
330
3B6
102
}
330
3B6
100
AcDbXrecord
280
     1
270
     1
271
     1
  0
XRECORD
  5
3B7
102
{ACAD_REACTORS
330
3B6
102
}
330
3B6
100
AcDbXrecord
280
     1
270
     1
271
     1
  0
XRECORD
  5
3BB
102
{ACAD_REACTORS
330
3B6
102
}
330
3B6
100
AcDbXrecord
280
     1
270
     1
271
     1
  0
XRECORD
  5
3BA
102
{ACAD_REACTORS
330
3B6
102
}
330
3B6
100
AcDbXrecord
280
     1
270
     1
271
     1
  0
XRECORD
  5
3BC
102
{ACAD_REACTORS
330
3B6
102
}
330
3B6
100
AcDbXrecord
280
     1
270
     1
271
     1
  0
XRECORD
  5
3B9
102
{ACAD_REACTORS
330
3B6
102
}
330
3B6
100
AcDbXrecord
280
     1
270
     1
271
     1
  0
XRECORD
  5
449
102
{ACAD_REACTORS
330
3C6
102
}
330
3C6
100
AcDbXrecord
280
     1
102
MATERIAL
148
0.0
149
0.0
149
0.0
 93
        0
 94
      127
282
     0
 72
     0
 77
     0
171
     0
175
     0
179
     0
273
     0
  0
XRECORD
  5
3C8
102
{ACAD_REACTORS
330
3C6
102
}
330
3C6
100
AcDbXrecord
280
     1
270
     1
271
     1
  0
XRECORD
  5
3C7
102
{ACAD_REACTORS
330
3C6
102
}
330
3C6
100
AcDbXrecord
280
     1
270
     1
271
     1
  0
XRECORD
  5
3CB
102
{ACAD_REACTORS
330
3C6
102
}
330
3C6
100
AcDbXrecord
280
     1
270
     1
271
     1
  0
XRECORD
  5
3CA
102
{ACAD_REACTORS
330
3C6
102
}
330
3C6
100
AcDbXrecord
280
     1
270
     1
271
     1
  0
XRECORD
  5
3CC
102
{ACAD_REACTORS
330
3C6
102
}
330
3C6
100
AcDbXrecord
280
     1
270
     1
271
     1
  0
XRECORD
  5
3C9
102
{ACAD_REACTORS
330
3C6
102
}
330
3C6
100
AcDbXrecord
280
     1
270
     1
271
     1
  0
XRECORD
  5
47D
102
{ACAD_REACTORS
330
47C
102
}
330
47C
100
AcDbXrecord
280
     1
102
DISPLAYNAME
  1
Imperial24
102
FLAGS
 90
        0
  0
CELLSTYLEMAP
  5
444
102
{ACAD_REACTORS
330
443
102
}
330
443
100
AcDbCellStyleMap
 90
        3
300
CELLSTYLE
  1
TABLEFORMAT_BEGIN
 90
        5
170
     1
 91
        0
 92
    32768
 62
   257
 93
        1
300
CONTENTFORMAT
  1
CONTENTFORMAT_BEGIN
 90
        0
 91
        0
 92
      512
 93
        0
300

 40
0.0
140
1.0
 94
        5
 62
     0
340
3F9
144
0.25
309
CONTENTFORMAT_END
171
     0
 94
        0
309
TABLEFORMAT_END
  1
CELLSTYLE_BEGIN
 90
        1
 91
        1
300
_TITLE
309
CELLSTYLE_END
300
CELLSTYLE
  1
TABLEFORMAT_BEGIN
 90
        5
170
     1
 91
        0
 92
        0
 62
   257
 93
        1
300
CONTENTFORMAT
  1
CONTENTFORMAT_BEGIN
 90
        0
 91
        0
 92
      512
 93
        0
300

 40
0.0
140
1.0
 94
        5
 62
     0
340
3F9
144
0.18
309
CONTENTFORMAT_END
171
     0
 94
        0
309
TABLEFORMAT_END
  1
CELLSTYLE_BEGIN
 90
        2
 91
        1
300
_HEADER
309
CELLSTYLE_END
300
CELLSTYLE
  1
TABLEFORMAT_BEGIN
 90
        5
170
     1
 91
        0
 92
        0
 62
   257
 93
        1
300
CONTENTFORMAT
  1
CONTENTFORMAT_BEGIN
 90
        0
 91
        0
 92
      512
 93
        0
300

 40
0.0
140
1.0
 94
        2
 62
     0
340
3F9
144
0.18
309
CONTENTFORMAT_END
171
     0
 94
        0
309
TABLEFORMAT_END
  1
CELLSTYLE_BEGIN
 90
        3
 91
        2
300
_DATA
309
CELLSTYLE_END
  0
XRECORD
  5
47A
102
{ACAD_REACTORS
330
443
102
}
330
443
100
AcDbXrecord
280
     1
102
ACAD_ROUNDTRIP_PRE2007_TABLESTYLE
 90
      512
 91
        0
  1

 92
      512
 93
        0
  2

 94
      512
 95
        0
  3

  0
XRECORD
  5
455
102
{ACAD_REACTORS
330
454
102
}
330
454
100
AcDbXrecord
280
     1
102
RTVSPost2010Prop28
280
     1
102
RTVSPost2010PropOp28
 70
     1
102
RTVSPost2010Prop29
280
     1
102
RTVSPost2010PropOp29
 70
     1
102
RTVSPost2010Prop30
280
     0
102
RTVSPost2010PropOp30
 70
     1
102
RTVSPost2010Prop31
280
     0
102
RTVSPost2010PropOp31
 70
     1
102
RTVSPost2010Prop32
280
     0
102
RTVSPost2010PropOp32
 70
     1
102
RTVSPost2010Prop33
280
     0
102
RTVSPost2010PropOp33
 70
     1
102
RTVSPost2010Prop34
280
     0
102
RTVSPost2010PropOp34
 70
     1
102
RTVSPost2010Prop35
280
     0
102
RTVSPost2010PropOp35
 70
     1
102
RTVSPost2010Prop36
280
     0
102
RTVSPost2010PropOp36
 70
     1
102
RTVSPost2010Prop37
 90
       50
102
RTVSPost2010PropOp37
 70
     1
102
RTVSPost2010Prop38
140
0.0
102
RTVSPost2010PropOp38
 70
     1
102
RTVSPost2010Prop39
140
1.0
102
RTVSPost2010PropOp39
 70
     1
102
RTVSPost2010Prop40
 90
        0
102
RTVSPost2010PropOp40
 70
     1
102
RTVSPost2010Prop41ColorIndex
 90
       18
102
RTVSPost2010Prop41ColorRGB
 90
        0
102
RTVSPost2010PropOp41
 70
     1
102
RTVSPost2010Prop42
 90
       50
102
RTVSPost2010PropOp42
 70
     1
102
RTVSPost2010Prop43
 90
        3
102
RTVSPost2010PropOp43
 70
     1
102
RTVSPost2010Prop44ColorIndex
 90
        5
102
RTVSPost2010Prop44ColorRGB
 90
      255
102
RTVSPost2010PropOp44
 70
     1
102
RTVSPost2010Prop45
280
     0
102
RTVSPost2010PropOp45
 70
     1
102
RTVSPost2010Prop46
 90
       50
102
RTVSPost2010PropOp46
 70
     1
102
RTVSPost2010Prop47
 90
       50
102
RTVSPost2010PropOp47
 70
     1
102
RTVSPost2010Prop48
 90
       50
102
RTVSPost2010PropOp48
 70
     1
102
RTVSPost2010Prop49
280
     0
102
RTVSPost2010PropOp49
 70
     1
102
RTVSPost2010Prop50
 90
       50
102
RTVSPost2010PropOp50
 70
     1
102
RTVSPost2010Prop51ColorIndex
 90
      256
102
RTVSPost2010Prop51ColorRGB
 90
-16777216
102
RTVSPost2010PropOp51
 70
     0
102
RTVSPost2010Prop52
140
1.0
102
RTVSPost2010PropOp52
 70
     0
102
RTVSPost2010Prop53
 90
        2
102
RTVSPost2010PropOp53
 70
     1
102
RTVSPost2010Prop54
  1
strokes_ogs.tif
102
RTVSPost2010PropOp54
 70
     1
102
RTVSPost2010Prop55
280
     0
102
RTVSPost2010PropOp55
 70
     1
102
RTVSPost2010Prop56
140
1.0
102
RTVSPost2010PropOp56
 70
     1
102
RTVSPost2010Prop57
140
1.0
102
RTVSPost2010PropOp57
 70
     1
102
RTVSPropertyOp0
 70
     1
102
RTVSPropertyOp1
 70
     1
102
RTVSPropertyOp2
 70
     1
102
RTVSPropertyOp3
 70
     1
102
RTVSPropertyOp4
 70
     1
102
RTVSPropertyOp5
 70
     1
102
RTVSPropertyOp6
 70
     1
102
RTVSPropertyOp7
 70
     1
102
RTVSPropertyOp8
 70
     1
102
RTVSPropertyOp9
 70
     1
102
RTVSPropertyOp10
 70
     1
102
RTVSPropertyOp11
 70
     1
102
RTVSPropertyOp12
 70
     1
102
RTVSPropertyOp13
 70
     1
102
RTVSPropertyOp14
 70
     1
102
RTVSPropertyOp15
 70
     1
102
RTVSPropertyOp16
 70
     1
102
RTVSPropertyOp17
 70
     1
102
RTVSPropertyOp18
 70
     1
102
RTVSPropertyOp19
 70
     1
102
RTVSPropertyOp20
 70
     1
102
RTVSPropertyOp21
 70
     1
102
RTVSPropertyOp22
 70
     1
102
RTVSPropertyOp23
 70
     1
102
RTVSPropertyOp24
 70
     1
102
RTVSPropertyOp25
 70
     1
102
RTVSPropertyOp26
 70
     1
102
RTVSPropertyOp27
 70
     1
102
RTVSPropertyOp28
 70
     1
102
RTVSPropertyOp29
 70
     1
102
RTVSPropertyOp30
 70
     1
102
RTVSPropertyOp31
 70
     1
102
RTVSPropertyOp32
 70
     1
102
RTVSPropertyOp33
 70
     1
102
RTVSPropertyOp34
 70
     1
102
RTVSPropertyOp35
 70
     1
102
RTVSPropertyOp36
 70
     1
102
RTVSPropertyOp37
 70
     1
102
RTVSPropertyOp38
 70
     1
102
RTVSPropertyOp39
 70
     1
102
RTVSPropertyOp40
 70
     1
102
RTVSPropertyOp41
 70
     1
102
RTVSPropertyOp42
 70
     1
102
RTVSPropertyOp43
 70
     1
102
RTVSPropertyOp44
 70
     1
102
RTVSPropertyOp45
 70
     1
102
RTVSPropertyOp46
 70
     1
102
RTVSPropertyOp47
 70
     1
102
RTVSPropertyOp48
 70
     1
102
RTVSPropertyOp49
 70
     1
102
RTVSPropertyOp50
 70
     1
102
RTVSPropertyOp51
 70
     0
102
RTVSPropertyOp52
 70
     0
102
RTVSPropertyOp53
 70
     1
102
RTVSPropertyOp54
 70
     1
102
RTVSPropertyOp55
 70
     1
102
RTVSPropertyOp56
 70
     1
102
RTVSPropertyOp57
 70
     1
102
RTVSPropertyOp58
 70
     1
102
RTVSPropertyOp59
 70
     1
102
RTVSPropertyOp60
 70
     1
102
RTVSPropertyOp61
 70
     1
102
RTVSPropertyOp62
 70
     1
  0
XRECORD
  5
453
102
{ACAD_REACTORS
330
452
102
}
330
452
100
AcDbXrecord
280
     1
102
RTVSPost2010Prop28
280
     0
102
RTVSPost2010PropOp28
 70
     1
102
RTVSPost2010Prop29
280
     1
102
RTVSPost2010PropOp29
 70
     1
102
RTVSPost2010Prop30
280
     1
102
RTVSPost2010PropOp30
 70
     1
102
RTVSPost2010Prop31
280
     0
102
RTVSPost2010PropOp31
 70
     1
102
RTVSPost2010Prop32
280
     0
102
RTVSPost2010PropOp32
 70
     1
102
RTVSPost2010Prop33
280
     0
102
RTVSPost2010PropOp33
 70
     1
102
RTVSPost2010Prop34
280
     0
102
RTVSPost2010PropOp34
 70
     1
102
RTVSPost2010Prop35
280
     0
102
RTVSPost2010PropOp35
 70
     1
102
RTVSPost2010Prop36
280
     0
102
RTVSPost2010PropOp36
 70
     1
102
RTVSPost2010Prop37
 90
       50
102
RTVSPost2010PropOp37
 70
     1
102
RTVSPost2010Prop38
140
0.0
102
RTVSPost2010PropOp38
 70
     1
102
RTVSPost2010Prop39
140
1.0
102
RTVSPost2010PropOp39
 70
     1
102
RTVSPost2010Prop40
 90
        0
102
RTVSPost2010PropOp40
 70
     1
102
RTVSPost2010Prop41ColorIndex
 90
       18
102
RTVSPost2010Prop41ColorRGB
 90
        0
102
RTVSPost2010PropOp41
 70
     1
102
RTVSPost2010Prop42
 90
       50
102
RTVSPost2010PropOp42
 70
     1
102
RTVSPost2010Prop43
 90
        3
102
RTVSPost2010PropOp43
 70
     1
102
RTVSPost2010Prop44ColorIndex
 90
        5
102
RTVSPost2010Prop44ColorRGB
 90
      255
102
RTVSPost2010PropOp44
 70
     1
102
RTVSPost2010Prop45
280
     0
102
RTVSPost2010PropOp45
 70
     1
102
RTVSPost2010Prop46
 90
       50
102
RTVSPost2010PropOp46
 70
     1
102
RTVSPost2010Prop47
 90
       50
102
RTVSPost2010PropOp47
 70
     1
102
RTVSPost2010Prop48
 90
       50
102
RTVSPost2010PropOp48
 70
     1
102
RTVSPost2010Prop49
280
     0
102
RTVSPost2010PropOp49
 70
     1
102
RTVSPost2010Prop50
 90
       50
102
RTVSPost2010PropOp50
 70
     1
102
RTVSPost2010Prop51ColorIndex
 90
      256
102
RTVSPost2010Prop51ColorRGB
 90
-16777216
102
RTVSPost2010PropOp51
 70
     0
102
RTVSPost2010Prop52
140
1.0
102
RTVSPost2010PropOp52
 70
     0
102
RTVSPost2010Prop53
 90
        2
102
RTVSPost2010PropOp53
 70
     1
102
RTVSPost2010Prop54
  1
strokes_ogs.tif
102
RTVSPost2010PropOp54
 70
     1
102
RTVSPost2010Prop55
280
     0
102
RTVSPost2010PropOp55
 70
     1
102
RTVSPost2010Prop56
140
1.0
102
RTVSPost2010PropOp56
 70
     1
102
RTVSPost2010Prop57
140
1.0
102
RTVSPost2010PropOp57
 70
     1
102
RTVSPropertyOp0
 70
     1
102
RTVSPropertyOp1
 70
     1
102
RTVSPropertyOp2
 70
     1
102
RTVSPropertyOp3
 70
     1
102
RTVSPropertyOp4
 70
     1
102
RTVSPropertyOp5
 70
     1
102
RTVSPropertyOp6
 70
     1
102
RTVSPropertyOp7
 70
     1
102
RTVSPropertyOp8
 70
     1
102
RTVSPropertyOp9
 70
     1
102
RTVSPropertyOp10
 70
     1
102
RTVSPropertyOp11
 70
     1
102
RTVSPropertyOp12
 70
     1
102
RTVSPropertyOp13
 70
     1
102
RTVSPropertyOp14
 70
     1
102
RTVSPropertyOp15
 70
     1
102
RTVSPropertyOp16
 70
     1
102
RTVSPropertyOp17
 70
     1
102
RTVSPropertyOp18
 70
     1
102
RTVSPropertyOp19
 70
     1
102
RTVSPropertyOp20
 70
     1
102
RTVSPropertyOp21
 70
     1
102
RTVSPropertyOp22
 70
     1
102
RTVSPropertyOp23
 70
     1
102
RTVSPropertyOp24
 70
     1
102
RTVSPropertyOp25
 70
     1
102
RTVSPropertyOp26
 70
     1
102
RTVSPropertyOp27
 70
     1
102
RTVSPropertyOp28
 70
     1
102
RTVSPropertyOp29
 70
     1
102
RTVSPropertyOp30
 70
     1
102
RTVSPropertyOp31
 70
     1
102
RTVSPropertyOp32
 70
     1
102
RTVSPropertyOp33
 70
     1
102
RTVSPropertyOp34
 70
     1
102
RTVSPropertyOp35
 70
     1
102
RTVSPropertyOp36
 70
     1
102
RTVSPropertyOp37
 70
     1
102
RTVSPropertyOp38
 70
     1
102
RTVSPropertyOp39
 70
     1
102
RTVSPropertyOp40
 70
     1
102
RTVSPropertyOp41
 70
     1
102
RTVSPropertyOp42
 70
     1
102
RTVSPropertyOp43
 70
     1
102
RTVSPropertyOp44
 70
     1
102
RTVSPropertyOp45
 70
     1
102
RTVSPropertyOp46
 70
     1
102
RTVSPropertyOp47
 70
     1
102
RTVSPropertyOp48
 70
     1
102
RTVSPropertyOp49
 70
     1
102
RTVSPropertyOp50
 70
     1
102
RTVSPropertyOp51
 70
     0
102
RTVSPropertyOp52
 70
     0
102
RTVSPropertyOp53
 70
     1
102
RTVSPropertyOp54
 70
     1
102
RTVSPropertyOp55
 70
     1
102
RTVSPropertyOp56
 70
     1
102
RTVSPropertyOp57
 70
     1
102
RTVSPropertyOp58
 70
     1
102
RTVSPropertyOp59
 70
     1
102
RTVSPropertyOp60
 70
     1
102
RTVSPropertyOp61
 70
     1
102
RTVSPropertyOp62
 70
     1
  0
XRECORD
  5
461
102
{ACAD_REACTORS
330
460
102
}
330
460
100
AcDbXrecord
280
     1
102
RTVSPost2010Prop28
280
     0
102
RTVSPost2010PropOp28
 70
     1
102
RTVSPost2010Prop29
280
     1
102
RTVSPost2010PropOp29
 70
     1
102
RTVSPost2010Prop30
280
     1
102
RTVSPost2010PropOp30
 70
     1
102
RTVSPost2010Prop31
280
     0
102
RTVSPost2010PropOp31
 70
     1
102
RTVSPost2010Prop32
280
     0
102
RTVSPost2010PropOp32
 70
     1
102
RTVSPost2010Prop33
280
     0
102
RTVSPost2010PropOp33
 70
     1
102
RTVSPost2010Prop34
280
     0
102
RTVSPost2010PropOp34
 70
     1
102
RTVSPost2010Prop35
280
     0
102
RTVSPost2010PropOp35
 70
     1
102
RTVSPost2010Prop36
280
     0
102
RTVSPost2010PropOp36
 70
     1
102
RTVSPost2010Prop37
 90
       50
102
RTVSPost2010PropOp37
 70
     1
102
RTVSPost2010Prop38
140
0.0
102
RTVSPost2010PropOp38
 70
     1
102
RTVSPost2010Prop39
140
1.0
102
RTVSPost2010PropOp39
 70
     1
102
RTVSPost2010Prop40
 90
        0
102
RTVSPost2010PropOp40
 70
     1
102
RTVSPost2010Prop41ColorIndex
 90
       18
102
RTVSPost2010Prop41ColorRGB
 90
        0
102
RTVSPost2010PropOp41
 70
     1
102
RTVSPost2010Prop42
 90
       50
102
RTVSPost2010PropOp42
 70
     1
102
RTVSPost2010Prop43
 90
        3
102
RTVSPost2010PropOp43
 70
     1
102
RTVSPost2010Prop44ColorIndex
 90
        5
102
RTVSPost2010Prop44ColorRGB
 90
      255
102
RTVSPost2010PropOp44
 70
     1
102
RTVSPost2010Prop45
280
     0
102
RTVSPost2010PropOp45
 70
     1
102
RTVSPost2010Prop46
 90
       50
102
RTVSPost2010PropOp46
 70
     1
102
RTVSPost2010Prop47
 90
       50
102
RTVSPost2010PropOp47
 70
     1
102
RTVSPost2010Prop48
 90
       50
102
RTVSPost2010PropOp48
 70
     1
102
RTVSPost2010Prop49
280
     0
102
RTVSPost2010PropOp49
 70
     1
102
RTVSPost2010Prop50
 90
       50
102
RTVSPost2010PropOp50
 70
     1
102
RTVSPost2010Prop51ColorIndex
 90
      256
102
RTVSPost2010Prop51ColorRGB
 90
-16777216
102
RTVSPost2010PropOp51
 70
     0
102
RTVSPost2010Prop52
140
1.0
102
RTVSPost2010PropOp52
 70
     0
102
RTVSPost2010Prop53
 90
        2
102
RTVSPost2010PropOp53
 70
     1
102
RTVSPost2010Prop54
  1
strokes_ogs.tif
102
RTVSPost2010PropOp54
 70
     1
102
RTVSPost2010Prop55
280
     0
102
RTVSPost2010PropOp55
 70
     1
102
RTVSPost2010Prop56
140
1.0
102
RTVSPost2010PropOp56
 70
     1
102
RTVSPost2010Prop57
140
1.0
102
RTVSPost2010PropOp57
 70
     1
102
RTVSPropertyOp0
 70
     1
102
RTVSPropertyOp1
 70
     1
102
RTVSPropertyOp2
 70
     1
102
RTVSPropertyOp3
 70
     1
102
RTVSPropertyOp4
 70
     1
102
RTVSPropertyOp5
 70
     1
102
RTVSPropertyOp6
 70
     1
102
RTVSPropertyOp7
 70
     1
102
RTVSPropertyOp8
 70
     1
102
RTVSPropertyOp9
 70
     1
102
RTVSPropertyOp10
 70
     1
102
RTVSPropertyOp11
 70
     1
102
RTVSPropertyOp12
 70
     1
102
RTVSPropertyOp13
 70
     1
102
RTVSPropertyOp14
 70
     1
102
RTVSPropertyOp15
 70
     1
102
RTVSPropertyOp16
 70
     1
102
RTVSPropertyOp17
 70
     1
102
RTVSPropertyOp18
 70
     1
102
RTVSPropertyOp19
 70
     1
102
RTVSPropertyOp20
 70
     1
102
RTVSPropertyOp21
 70
     1
102
RTVSPropertyOp22
 70
     1
102
RTVSPropertyOp23
 70
     1
102
RTVSPropertyOp24
 70
     1
102
RTVSPropertyOp25
 70
     1
102
RTVSPropertyOp26
 70
     1
102
RTVSPropertyOp27
 70
     1
102
RTVSPropertyOp28
 70
     1
102
RTVSPropertyOp29
 70
     1
102
RTVSPropertyOp30
 70
     1
102
RTVSPropertyOp31
 70
     1
102
RTVSPropertyOp32
 70
     1
102
RTVSPropertyOp33
 70
     1
102
RTVSPropertyOp34
 70
     1
102
RTVSPropertyOp35
 70
     1
102
RTVSPropertyOp36
 70
     1
102
RTVSPropertyOp37
 70
     1
102
RTVSPropertyOp38
 70
     1
102
RTVSPropertyOp39
 70
     1
102
RTVSPropertyOp40
 70
     1
102
RTVSPropertyOp41
 70
     1
102
RTVSPropertyOp42
 70
     1
102
RTVSPropertyOp43
 70
     1
102
RTVSPropertyOp44
 70
     1
102
RTVSPropertyOp45
 70
     1
102
RTVSPropertyOp46
 70
     1
102
RTVSPropertyOp47
 70
     1
102
RTVSPropertyOp48
 70
     1
102
RTVSPropertyOp49
 70
     1
102
RTVSPropertyOp50
 70
     1
102
RTVSPropertyOp51
 70
     0
102
RTVSPropertyOp52
 70
     0
102
RTVSPropertyOp53
 70
     1
102
RTVSPropertyOp54
 70
     1
102
RTVSPropertyOp55
 70
     1
102
RTVSPropertyOp56
 70
     1
102
RTVSPropertyOp57
 70
     1
102
RTVSPropertyOp58
 70
     1
102
RTVSPropertyOp59
 70
     1
102
RTVSPropertyOp60
 70
     1
102
RTVSPropertyOp61
 70
     1
102
RTVSPropertyOp62
 70
     1
  0
XRECORD
  5
469
102
{ACAD_REACTORS
330
468
102
}
330
468
100
AcDbXrecord
280
     1
102
RTVSPost2010Prop28
280
     0
102
RTVSPost2010PropOp28
 70
     1
102
RTVSPost2010Prop29
280
     1
102
RTVSPost2010PropOp29
 70
     1
102
RTVSPost2010Prop30
280
     1
102
RTVSPost2010PropOp30
 70
     1
102
RTVSPost2010Prop31
280
     0
102
RTVSPost2010PropOp31
 70
     1
102
RTVSPost2010Prop32
280
     0
102
RTVSPost2010PropOp32
 70
     1
102
RTVSPost2010Prop33
280
     0
102
RTVSPost2010PropOp33
 70
     1
102
RTVSPost2010Prop34
280
     0
102
RTVSPost2010PropOp34
 70
     1
102
RTVSPost2010Prop35
280
     0
102
RTVSPost2010PropOp35
 70
     1
102
RTVSPost2010Prop36
280
     0
102
RTVSPost2010PropOp36
 70
     1
102
RTVSPost2010Prop37
 90
       50
102
RTVSPost2010PropOp37
 70
     1
102
RTVSPost2010Prop38
140
0.0
102
RTVSPost2010PropOp38
 70
     1
102
RTVSPost2010Prop39
140
1.0
102
RTVSPost2010PropOp39
 70
     1
102
RTVSPost2010Prop40
 90
        0
102
RTVSPost2010PropOp40
 70
     1
102
RTVSPost2010Prop41ColorIndex
 90
       18
102
RTVSPost2010Prop41ColorRGB
 90
        0
102
RTVSPost2010PropOp41
 70
     1
102
RTVSPost2010Prop42
 90
       50
102
RTVSPost2010PropOp42
 70
     1
102
RTVSPost2010Prop43
 90
        3
102
RTVSPost2010PropOp43
 70
     1
102
RTVSPost2010Prop44ColorIndex
 90
        5
102
RTVSPost2010Prop44ColorRGB
 90
      255
102
RTVSPost2010PropOp44
 70
     1
102
RTVSPost2010Prop45
280
     0
102
RTVSPost2010PropOp45
 70
     1
102
RTVSPost2010Prop46
 90
       50
102
RTVSPost2010PropOp46
 70
     1
102
RTVSPost2010Prop47
 90
       50
102
RTVSPost2010PropOp47
 70
     1
102
RTVSPost2010Prop48
 90
       50
102
RTVSPost2010PropOp48
 70
     1
102
RTVSPost2010Prop49
280
     0
102
RTVSPost2010PropOp49
 70
     1
102
RTVSPost2010Prop50
 90
       50
102
RTVSPost2010PropOp50
 70
     1
102
RTVSPost2010Prop51ColorIndex
 90
      256
102
RTVSPost2010Prop51ColorRGB
 90
-16777216
102
RTVSPost2010PropOp51
 70
     0
102
RTVSPost2010Prop52
140
1.0
102
RTVSPost2010PropOp52
 70
     0
102
RTVSPost2010Prop53
 90
        2
102
RTVSPost2010PropOp53
 70
     1
102
RTVSPost2010Prop54
  1
strokes_ogs.tif
102
RTVSPost2010PropOp54
 70
     1
102
RTVSPost2010Prop55
280
     0
102
RTVSPost2010PropOp55
 70
     1
102
RTVSPost2010Prop56
140
1.0
102
RTVSPost2010PropOp56
 70
     1
102
RTVSPost2010Prop57
140
1.0
102
RTVSPost2010PropOp57
 70
     1
102
RTVSPropertyOp0
 70
     1
102
RTVSPropertyOp1
 70
     1
102
RTVSPropertyOp2
 70
     1
102
RTVSPropertyOp3
 70
     1
102
RTVSPropertyOp4
 70
     1
102
RTVSPropertyOp5
 70
     1
102
RTVSPropertyOp6
 70
     1
102
RTVSPropertyOp7
 70
     1
102
RTVSPropertyOp8
 70
     1
102
RTVSPropertyOp9
 70
     1
102
RTVSPropertyOp10
 70
     1
102
RTVSPropertyOp11
 70
     1
102
RTVSPropertyOp12
 70
     1
102
RTVSPropertyOp13
 70
     1
102
RTVSPropertyOp14
 70
     1
102
RTVSPropertyOp15
 70
     1
102
RTVSPropertyOp16
 70
     1
102
RTVSPropertyOp17
 70
     1
102
RTVSPropertyOp18
 70
     1
102
RTVSPropertyOp19
 70
     1
102
RTVSPropertyOp20
 70
     1
102
RTVSPropertyOp21
 70
     1
102
RTVSPropertyOp22
 70
     1
102
RTVSPropertyOp23
 70
     1
102
RTVSPropertyOp24
 70
     1
102
RTVSPropertyOp25
 70
     1
102
RTVSPropertyOp26
 70
     1
102
RTVSPropertyOp27
 70
     1
102
RTVSPropertyOp28
 70
     1
102
RTVSPropertyOp29
 70
     1
102
RTVSPropertyOp30
 70
     1
102
RTVSPropertyOp31
 70
     1
102
RTVSPropertyOp32
 70
     1
102
RTVSPropertyOp33
 70
     1
102
RTVSPropertyOp34
 70
     1
102
RTVSPropertyOp35
 70
     1
102
RTVSPropertyOp36
 70
     1
102
RTVSPropertyOp37
 70
     1
102
RTVSPropertyOp38
 70
     1
102
RTVSPropertyOp39
 70
     1
102
RTVSPropertyOp40
 70
     1
102
RTVSPropertyOp41
 70
     1
102
RTVSPropertyOp42
 70
     1
102
RTVSPropertyOp43
 70
     1
102
RTVSPropertyOp44
 70
     1
102
RTVSPropertyOp45
 70
     1
102
RTVSPropertyOp46
 70
     1
102
RTVSPropertyOp47
 70
     1
102
RTVSPropertyOp48
 70
     1
102
RTVSPropertyOp49
 70
     1
102
RTVSPropertyOp50
 70
     1
102
RTVSPropertyOp51
 70
     0
102
RTVSPropertyOp52
 70
     0
102
RTVSPropertyOp53
 70
     1
102
RTVSPropertyOp54
 70
     1
102
RTVSPropertyOp55
 70
     1
102
RTVSPropertyOp56
 70
     1
102
RTVSPropertyOp57
 70
     1
102
RTVSPropertyOp58
 70
     1
102
RTVSPropertyOp59
 70
     1
102
RTVSPropertyOp60
 70
     1
102
RTVSPropertyOp61
 70
     1
102
RTVSPropertyOp62
 70
     1
  0
XRECORD
  5
45B
102
{ACAD_REACTORS
330
45A
102
}
330
45A
100
AcDbXrecord
280
     1
102
RTVSPost2010Prop28
280
     0
102
RTVSPost2010PropOp28
 70
     1
102
RTVSPost2010Prop29
280
     1
102
RTVSPost2010PropOp29
 70
     1
102
RTVSPost2010Prop30
280
     1
102
RTVSPost2010PropOp30
 70
     1
102
RTVSPost2010Prop31
280
     0
102
RTVSPost2010PropOp31
 70
     1
102
RTVSPost2010Prop32
280
     0
102
RTVSPost2010PropOp32
 70
     1
102
RTVSPost2010Prop33
280
     0
102
RTVSPost2010PropOp33
 70
     1
102
RTVSPost2010Prop34
280
     0
102
RTVSPost2010PropOp34
 70
     1
102
RTVSPost2010Prop35
280
     0
102
RTVSPost2010PropOp35
 70
     1
102
RTVSPost2010Prop36
280
     0
102
RTVSPost2010PropOp36
 70
     1
102
RTVSPost2010Prop37
 90
       50
102
RTVSPost2010PropOp37
 70
     1
102
RTVSPost2010Prop38
140
0.0
102
RTVSPost2010PropOp38
 70
     1
102
RTVSPost2010Prop39
140
1.0
102
RTVSPost2010PropOp39
 70
     1
102
RTVSPost2010Prop40
 90
        0
102
RTVSPost2010PropOp40
 70
     1
102
RTVSPost2010Prop41ColorIndex
 90
       18
102
RTVSPost2010Prop41ColorRGB
 90
        0
102
RTVSPost2010PropOp41
 70
     1
102
RTVSPost2010Prop42
 90
       50
102
RTVSPost2010PropOp42
 70
     1
102
RTVSPost2010Prop43
 90
        3
102
RTVSPost2010PropOp43
 70
     1
102
RTVSPost2010Prop44ColorIndex
 90
        5
102
RTVSPost2010Prop44ColorRGB
 90
      255
102
RTVSPost2010PropOp44
 70
     1
102
RTVSPost2010Prop45
280
     0
102
RTVSPost2010PropOp45
 70
     1
102
RTVSPost2010Prop46
 90
       50
102
RTVSPost2010PropOp46
 70
     1
102
RTVSPost2010Prop47
 90
       50
102
RTVSPost2010PropOp47
 70
     1
102
RTVSPost2010Prop48
 90
       50
102
RTVSPost2010PropOp48
 70
     1
102
RTVSPost2010Prop49
280
     0
102
RTVSPost2010PropOp49
 70
     1
102
RTVSPost2010Prop50
 90
       50
102
RTVSPost2010PropOp50
 70
     1
102
RTVSPost2010Prop51ColorIndex
 90
      256
102
RTVSPost2010Prop51ColorRGB
 90
-16777216
102
RTVSPost2010PropOp51
 70
     0
102
RTVSPost2010Prop52
140
1.0
102
RTVSPost2010PropOp52
 70
     0
102
RTVSPost2010Prop53
 90
        2
102
RTVSPost2010PropOp53
 70
     1
102
RTVSPost2010Prop54
  1
strokes_ogs.tif
102
RTVSPost2010PropOp54
 70
     1
102
RTVSPost2010Prop55
280
     0
102
RTVSPost2010PropOp55
 70
     1
102
RTVSPost2010Prop56
140
1.0
102
RTVSPost2010PropOp56
 70
     1
102
RTVSPost2010Prop57
140
1.0
102
RTVSPost2010PropOp57
 70
     1
102
RTVSPropertyOp0
 70
     1
102
RTVSPropertyOp1
 70
     1
102
RTVSPropertyOp2
 70
     1
102
RTVSPropertyOp3
 70
     1
102
RTVSPropertyOp4
 70
     1
102
RTVSPropertyOp5
 70
     1
102
RTVSPropertyOp6
 70
     1
102
RTVSPropertyOp7
 70
     1
102
RTVSPropertyOp8
 70
     1
102
RTVSPropertyOp9
 70
     1
102
RTVSPropertyOp10
 70
     1
102
RTVSPropertyOp11
 70
     1
102
RTVSPropertyOp12
 70
     1
102
RTVSPropertyOp13
 70
     1
102
RTVSPropertyOp14
 70
     1
102
RTVSPropertyOp15
 70
     1
102
RTVSPropertyOp16
 70
     1
102
RTVSPropertyOp17
 70
     1
102
RTVSPropertyOp18
 70
     1
102
RTVSPropertyOp19
 70
     1
102
RTVSPropertyOp20
 70
     1
102
RTVSPropertyOp21
 70
     1
102
RTVSPropertyOp22
 70
     1
102
RTVSPropertyOp23
 70
     1
102
RTVSPropertyOp24
 70
     1
102
RTVSPropertyOp25
 70
     1
102
RTVSPropertyOp26
 70
     1
102
RTVSPropertyOp27
 70
     1
102
RTVSPropertyOp28
 70
     1
102
RTVSPropertyOp29
 70
     1
102
RTVSPropertyOp30
 70
     1
102
RTVSPropertyOp31
 70
     1
102
RTVSPropertyOp32
 70
     1
102
RTVSPropertyOp33
 70
     1
102
RTVSPropertyOp34
 70
     1
102
RTVSPropertyOp35
 70
     1
102
RTVSPropertyOp36
 70
     1
102
RTVSPropertyOp37
 70
     1
102
RTVSPropertyOp38
 70
     1
102
RTVSPropertyOp39
 70
     1
102
RTVSPropertyOp40
 70
     1
102
RTVSPropertyOp41
 70
     1
102
RTVSPropertyOp42
 70
     1
102
RTVSPropertyOp43
 70
     1
102
RTVSPropertyOp44
 70
     1
102
RTVSPropertyOp45
 70
     1
102
RTVSPropertyOp46
 70
     1
102
RTVSPropertyOp47
 70
     1
102
RTVSPropertyOp48
 70
     1
102
RTVSPropertyOp49
 70
     1
102
RTVSPropertyOp50
 70
     1
102
RTVSPropertyOp51
 70
     0
102
RTVSPropertyOp52
 70
     0
102
RTVSPropertyOp53
 70
     1
102
RTVSPropertyOp54
 70
     1
102
RTVSPropertyOp55
 70
     1
102
RTVSPropertyOp56
 70
     1
102
RTVSPropertyOp57
 70
     1
102
RTVSPropertyOp58
 70
     1
102
RTVSPropertyOp59
 70
     1
102
RTVSPropertyOp60
 70
     1
102
RTVSPropertyOp61
 70
     1
102
RTVSPropertyOp62
 70
     1
  0
XRECORD
  5
45F
102
{ACAD_REACTORS
330
45E
102
}
330
45E
100
AcDbXrecord
280
     1
102
RTVSPost2010Prop28
280
     0
102
RTVSPost2010PropOp28
 70
     1
102
RTVSPost2010Prop29
280
     1
102
RTVSPost2010PropOp29
 70
     1
102
RTVSPost2010Prop30
280
     1
102
RTVSPost2010PropOp30
 70
     1
102
RTVSPost2010Prop31
280
     0
102
RTVSPost2010PropOp31
 70
     1
102
RTVSPost2010Prop32
280
     0
102
RTVSPost2010PropOp32
 70
     1
102
RTVSPost2010Prop33
280
     0
102
RTVSPost2010PropOp33
 70
     1
102
RTVSPost2010Prop34
280
     0
102
RTVSPost2010PropOp34
 70
     1
102
RTVSPost2010Prop35
280
     0
102
RTVSPost2010PropOp35
 70
     1
102
RTVSPost2010Prop36
280
     0
102
RTVSPost2010PropOp36
 70
     1
102
RTVSPost2010Prop37
 90
       50
102
RTVSPost2010PropOp37
 70
     1
102
RTVSPost2010Prop38
140
0.0
102
RTVSPost2010PropOp38
 70
     1
102
RTVSPost2010Prop39
140
1.0
102
RTVSPost2010PropOp39
 70
     1
102
RTVSPost2010Prop40
 90
        0
102
RTVSPost2010PropOp40
 70
     1
102
RTVSPost2010Prop41ColorIndex
 90
       18
102
RTVSPost2010Prop41ColorRGB
 90
        0
102
RTVSPost2010PropOp41
 70
     1
102
RTVSPost2010Prop42
 90
       50
102
RTVSPost2010PropOp42
 70
     1
102
RTVSPost2010Prop43
 90
        3
102
RTVSPost2010PropOp43
 70
     1
102
RTVSPost2010Prop44ColorIndex
 90
        5
102
RTVSPost2010Prop44ColorRGB
 90
      255
102
RTVSPost2010PropOp44
 70
     1
102
RTVSPost2010Prop45
280
     0
102
RTVSPost2010PropOp45
 70
     1
102
RTVSPost2010Prop46
 90
       50
102
RTVSPost2010PropOp46
 70
     1
102
RTVSPost2010Prop47
 90
       50
102
RTVSPost2010PropOp47
 70
     1
102
RTVSPost2010Prop48
 90
       50
102
RTVSPost2010PropOp48
 70
     1
102
RTVSPost2010Prop49
280
     0
102
RTVSPost2010PropOp49
 70
     1
102
RTVSPost2010Prop50
 90
       50
102
RTVSPost2010PropOp50
 70
     1
102
RTVSPost2010Prop51ColorIndex
 90
      256
102
RTVSPost2010Prop51ColorRGB
 90
-16777216
102
RTVSPost2010PropOp51
 70
     0
102
RTVSPost2010Prop52
140
1.0
102
RTVSPost2010PropOp52
 70
     0
102
RTVSPost2010Prop53
 90
        2
102
RTVSPost2010PropOp53
 70
     1
102
RTVSPost2010Prop54
  1
strokes_ogs.tif
102
RTVSPost2010PropOp54
 70
     1
102
RTVSPost2010Prop55
280
     0
102
RTVSPost2010PropOp55
 70
     1
102
RTVSPost2010Prop56
140
1.0
102
RTVSPost2010PropOp56
 70
     1
102
RTVSPost2010Prop57
140
1.0
102
RTVSPost2010PropOp57
 70
     1
102
RTVSPropertyOp0
 70
     1
102
RTVSPropertyOp1
 70
     1
102
RTVSPropertyOp2
 70
     1
102
RTVSPropertyOp3
 70
     1
102
RTVSPropertyOp4
 70
     1
102
RTVSPropertyOp5
 70
     1
102
RTVSPropertyOp6
 70
     1
102
RTVSPropertyOp7
 70
     1
102
RTVSPropertyOp8
 70
     1
102
RTVSPropertyOp9
 70
     1
102
RTVSPropertyOp10
 70
     1
102
RTVSPropertyOp11
 70
     1
102
RTVSPropertyOp12
 70
     1
102
RTVSPropertyOp13
 70
     1
102
RTVSPropertyOp14
 70
     1
102
RTVSPropertyOp15
 70
     1
102
RTVSPropertyOp16
 70
     1
102
RTVSPropertyOp17
 70
     1
102
RTVSPropertyOp18
 70
     1
102
RTVSPropertyOp19
 70
     1
102
RTVSPropertyOp20
 70
     1
102
RTVSPropertyOp21
 70
     1
102
RTVSPropertyOp22
 70
     1
102
RTVSPropertyOp23
 70
     1
102
RTVSPropertyOp24
 70
     1
102
RTVSPropertyOp25
 70
     1
102
RTVSPropertyOp26
 70
     1
102
RTVSPropertyOp27
 70
     1
102
RTVSPropertyOp28
 70
     1
102
RTVSPropertyOp29
 70
     1
102
RTVSPropertyOp30
 70
     1
102
RTVSPropertyOp31
 70
     1
102
RTVSPropertyOp32
 70
     1
102
RTVSPropertyOp33
 70
     1
102
RTVSPropertyOp34
 70
     1
102
RTVSPropertyOp35
 70
     1
102
RTVSPropertyOp36
 70
     1
102
RTVSPropertyOp37
 70
     1
102
RTVSPropertyOp38
 70
     1
102
RTVSPropertyOp39
 70
     1
102
RTVSPropertyOp40
 70
     1
102
RTVSPropertyOp41
 70
     1
102
RTVSPropertyOp42
 70
     1
102
RTVSPropertyOp43
 70
     1
102
RTVSPropertyOp44
 70
     1
102
RTVSPropertyOp45
 70
     1
102
RTVSPropertyOp46
 70
     1
102
RTVSPropertyOp47
 70
     1
102
RTVSPropertyOp48
 70
     1
102
RTVSPropertyOp49
 70
     1
102
RTVSPropertyOp50
 70
     1
102
RTVSPropertyOp51
 70
     0
102
RTVSPropertyOp52
 70
     0
102
RTVSPropertyOp53
 70
     1
102
RTVSPropertyOp54
 70
     1
102
RTVSPropertyOp55
 70
     1
102
RTVSPropertyOp56
 70
     1
102
RTVSPropertyOp57
 70
     1
102
RTVSPropertyOp58
 70
     1
102
RTVSPropertyOp59
 70
     1
102
RTVSPropertyOp60
 70
     1
102
RTVSPropertyOp61
 70
     1
102
RTVSPropertyOp62
 70
     1
  0
XRECORD
  5
479
102
{ACAD_REACTORS
330
478
102
}
330
478
100
AcDbXrecord
280
     1
102
RTVSPost2010Prop28
280
     0
102
RTVSPost2010PropOp28
 70
     1
102
RTVSPost2010Prop29
280
     1
102
RTVSPost2010PropOp29
 70
     1
102
RTVSPost2010Prop30
280
     1
102
RTVSPost2010PropOp30
 70
     1
102
RTVSPost2010Prop31
280
     0
102
RTVSPost2010PropOp31
 70
     1
102
RTVSPost2010Prop32
280
     0
102
RTVSPost2010PropOp32
 70
     1
102
RTVSPost2010Prop33
280
     0
102
RTVSPost2010PropOp33
 70
     1
102
RTVSPost2010Prop34
280
     0
102
RTVSPost2010PropOp34
 70
     1
102
RTVSPost2010Prop35
280
     0
102
RTVSPost2010PropOp35
 70
     1
102
RTVSPost2010Prop36
280
     0
102
RTVSPost2010PropOp36
 70
     1
102
RTVSPost2010Prop37
 90
       50
102
RTVSPost2010PropOp37
 70
     0
102
RTVSPost2010Prop38
140
0.0
102
RTVSPost2010PropOp38
 70
     0
102
RTVSPost2010Prop39
140
1.0
102
RTVSPost2010PropOp39
 70
     0
102
RTVSPost2010Prop40
 90
        0
102
RTVSPost2010PropOp40
 70
     0
102
RTVSPost2010Prop41ColorIndex
 90
       18
102
RTVSPost2010Prop41ColorRGB
 90
        0
102
RTVSPost2010PropOp41
 70
     0
102
RTVSPost2010Prop42
 90
       50
102
RTVSPost2010PropOp42
 70
     0
102
RTVSPost2010Prop43
 90
        3
102
RTVSPost2010PropOp43
 70
     0
102
RTVSPost2010Prop44ColorIndex
 90
        5
102
RTVSPost2010Prop44ColorRGB
 90
      255
102
RTVSPost2010PropOp44
 70
     0
102
RTVSPost2010Prop45
280
     0
102
RTVSPost2010PropOp45
 70
     1
102
RTVSPost2010Prop46
 90
       50
102
RTVSPost2010PropOp46
 70
     0
102
RTVSPost2010Prop47
 90
       50
102
RTVSPost2010PropOp47
 70
     0
102
RTVSPost2010Prop48
 90
       50
102
RTVSPost2010PropOp48
 70
     0
102
RTVSPost2010Prop49
280
     0
102
RTVSPost2010PropOp49
 70
     1
102
RTVSPost2010Prop50
 90
       50
102
RTVSPost2010PropOp50
 70
     0
102
RTVSPost2010Prop51ColorIndex
 90
      256
102
RTVSPost2010Prop51ColorRGB
 90
-16777216
102
RTVSPost2010PropOp51
 70
     0
102
RTVSPost2010Prop52
140
1.0
102
RTVSPost2010PropOp52
 70
     0
102
RTVSPost2010Prop53
 90
        2
102
RTVSPost2010PropOp53
 70
     0
102
RTVSPost2010Prop54
  1
strokes_ogs.tif
102
RTVSPost2010PropOp54
 70
     0
102
RTVSPost2010Prop55
280
     0
102
RTVSPost2010PropOp55
 70
     1
102
RTVSPost2010Prop56
140
1.0
102
RTVSPost2010PropOp56
 70
     0
102
RTVSPost2010Prop57
140
1.0
102
RTVSPost2010PropOp57
 70
     0
102
RTVSPropertyOp0
 70
     0
102
RTVSPropertyOp1
 70
     0
102
RTVSPropertyOp2
 70
     0
102
RTVSPropertyOp3
 70
     0
102
RTVSPropertyOp4
 70
     0
102
RTVSPropertyOp5
 70
     0
102
RTVSPropertyOp6
 70
     0
102
RTVSPropertyOp7
 70
     0
102
RTVSPropertyOp8
 70
     0
102
RTVSPropertyOp9
 70
     0
102
RTVSPropertyOp10
 70
     0
102
RTVSPropertyOp11
 70
     0
102
RTVSPropertyOp12
 70
     0
102
RTVSPropertyOp13
 70
     0
102
RTVSPropertyOp14
 70
     2
102
RTVSPropertyOp15
 70
     0
102
RTVSPropertyOp16
 70
     0
102
RTVSPropertyOp17
 70
     0
102
RTVSPropertyOp18
 70
     0
102
RTVSPropertyOp19
 70
     0
102
RTVSPropertyOp20
 70
     0
102
RTVSPropertyOp21
 70
     0
102
RTVSPropertyOp22
 70
     0
102
RTVSPropertyOp23
 70
     0
102
RTVSPropertyOp24
 70
     0
102
RTVSPropertyOp25
 70
     0
102
RTVSPropertyOp26
 70
     0
102
RTVSPropertyOp27
 70
     0
102
RTVSPropertyOp28
 70
     1
102
RTVSPropertyOp29
 70
     1
102
RTVSPropertyOp30
 70
     1
102
RTVSPropertyOp31
 70
     1
102
RTVSPropertyOp32
 70
     1
102
RTVSPropertyOp33
 70
     1
102
RTVSPropertyOp34
 70
     1
102
RTVSPropertyOp35
 70
     1
102
RTVSPropertyOp36
 70
     1
102
RTVSPropertyOp37
 70
     0
102
RTVSPropertyOp38
 70
     0
102
RTVSPropertyOp39
 70
     0
102
RTVSPropertyOp40
 70
     0
102
RTVSPropertyOp41
 70
     0
102
RTVSPropertyOp42
 70
     0
102
RTVSPropertyOp43
 70
     0
102
RTVSPropertyOp44
 70
     0
102
RTVSPropertyOp45
 70
     1
102
RTVSPropertyOp46
 70
     0
102
RTVSPropertyOp47
 70
     0
102
RTVSPropertyOp48
 70
     0
102
RTVSPropertyOp49
 70
     1
102
RTVSPropertyOp50
 70
     0
102
RTVSPropertyOp51
 70
     0
102
RTVSPropertyOp52
 70
     0
102
RTVSPropertyOp53
 70
     0
102
RTVSPropertyOp54
 70
     0
102
RTVSPropertyOp55
 70
     1
102
RTVSPropertyOp56
 70
     0
102
RTVSPropertyOp57
 70
     0
102
RTVSPropertyOp58
 70
     0
102
RTVSPropertyOp59
 70
     0
102
RTVSPropertyOp60
 70
     0
102
RTVSPropertyOp61
 70
     0
102
RTVSPropertyOp62
 70
     0
  0
XRECORD
  5
467
102
{ACAD_REACTORS
330
466
102
}
330
466
100
AcDbXrecord
280
     1
102
RTVSPost2010Prop28
280
     0
102
RTVSPost2010PropOp28
 70
     1
102
RTVSPost2010Prop29
280
     1
102
RTVSPost2010PropOp29
 70
     1
102
RTVSPost2010Prop30
280
     1
102
RTVSPost2010PropOp30
 70
     1
102
RTVSPost2010Prop31
280
     0
102
RTVSPost2010PropOp31
 70
     1
102
RTVSPost2010Prop32
280
     0
102
RTVSPost2010PropOp32
 70
     1
102
RTVSPost2010Prop33
280
     0
102
RTVSPost2010PropOp33
 70
     1
102
RTVSPost2010Prop34
280
     0
102
RTVSPost2010PropOp34
 70
     1
102
RTVSPost2010Prop35
280
     0
102
RTVSPost2010PropOp35
 70
     1
102
RTVSPost2010Prop36
280
     0
102
RTVSPost2010PropOp36
 70
     1
102
RTVSPost2010Prop37
 90
       50
102
RTVSPost2010PropOp37
 70
     1
102
RTVSPost2010Prop38
140
0.0
102
RTVSPost2010PropOp38
 70
     1
102
RTVSPost2010Prop39
140
1.0
102
RTVSPost2010PropOp39
 70
     1
102
RTVSPost2010Prop40
 90
        0
102
RTVSPost2010PropOp40
 70
     1
102
RTVSPost2010Prop41ColorIndex
 90
       18
102
RTVSPost2010Prop41ColorRGB
 90
        0
102
RTVSPost2010PropOp41
 70
     1
102
RTVSPost2010Prop42
 90
       50
102
RTVSPost2010PropOp42
 70
     1
102
RTVSPost2010Prop43
 90
        3
102
RTVSPost2010PropOp43
 70
     1
102
RTVSPost2010Prop44ColorIndex
 90
        5
102
RTVSPost2010Prop44ColorRGB
 90
      255
102
RTVSPost2010PropOp44
 70
     1
102
RTVSPost2010Prop45
280
     0
102
RTVSPost2010PropOp45
 70
     1
102
RTVSPost2010Prop46
 90
       50
102
RTVSPost2010PropOp46
 70
     1
102
RTVSPost2010Prop47
 90
       50
102
RTVSPost2010PropOp47
 70
     1
102
RTVSPost2010Prop48
 90
       50
102
RTVSPost2010PropOp48
 70
     1
102
RTVSPost2010Prop49
280
     0
102
RTVSPost2010PropOp49
 70
     1
102
RTVSPost2010Prop50
 90
       50
102
RTVSPost2010PropOp50
 70
     1
102
RTVSPost2010Prop51ColorIndex
 90
      256
102
RTVSPost2010Prop51ColorRGB
 90
-16777216
102
RTVSPost2010PropOp51
 70
     0
102
RTVSPost2010Prop52
140
1.0
102
RTVSPost2010PropOp52
 70
     0
102
RTVSPost2010Prop53
 90
        2
102
RTVSPost2010PropOp53
 70
     1
102
RTVSPost2010Prop54
  1
strokes_ogs.tif
102
RTVSPost2010PropOp54
 70
     1
102
RTVSPost2010Prop55
280
     0
102
RTVSPost2010PropOp55
 70
     1
102
RTVSPost2010Prop56
140
1.0
102
RTVSPost2010PropOp56
 70
     1
102
RTVSPost2010Prop57
140
1.0
102
RTVSPost2010PropOp57
 70
     1
102
RTVSPropertyOp0
 70
     1
102
RTVSPropertyOp1
 70
     1
102
RTVSPropertyOp2
 70
     1
102
RTVSPropertyOp3
 70
     1
102
RTVSPropertyOp4
 70
     1
102
RTVSPropertyOp5
 70
     1
102
RTVSPropertyOp6
 70
     1
102
RTVSPropertyOp7
 70
     1
102
RTVSPropertyOp8
 70
     1
102
RTVSPropertyOp9
 70
     1
102
RTVSPropertyOp10
 70
     1
102
RTVSPropertyOp11
 70
     1
102
RTVSPropertyOp12
 70
     1
102
RTVSPropertyOp13
 70
     1
102
RTVSPropertyOp14
 70
     1
102
RTVSPropertyOp15
 70
     1
102
RTVSPropertyOp16
 70
     1
102
RTVSPropertyOp17
 70
     1
102
RTVSPropertyOp18
 70
     1
102
RTVSPropertyOp19
 70
     1
102
RTVSPropertyOp20
 70
     1
102
RTVSPropertyOp21
 70
     1
102
RTVSPropertyOp22
 70
     1
102
RTVSPropertyOp23
 70
     1
102
RTVSPropertyOp24
 70
     1
102
RTVSPropertyOp25
 70
     1
102
RTVSPropertyOp26
 70
     1
102
RTVSPropertyOp27
 70
     1
102
RTVSPropertyOp28
 70
     1
102
RTVSPropertyOp29
 70
     1
102
RTVSPropertyOp30
 70
     1
102
RTVSPropertyOp31
 70
     1
102
RTVSPropertyOp32
 70
     1
102
RTVSPropertyOp33
 70
     1
102
RTVSPropertyOp34
 70
     1
102
RTVSPropertyOp35
 70
     1
102
RTVSPropertyOp36
 70
     1
102
RTVSPropertyOp37
 70
     1
102
RTVSPropertyOp38
 70
     1
102
RTVSPropertyOp39
 70
     1
102
RTVSPropertyOp40
 70
     1
102
RTVSPropertyOp41
 70
     1
102
RTVSPropertyOp42
 70
     1
102
RTVSPropertyOp43
 70
     1
102
RTVSPropertyOp44
 70
     1
102
RTVSPropertyOp45
 70
     1
102
RTVSPropertyOp46
 70
     1
102
RTVSPropertyOp47
 70
     1
102
RTVSPropertyOp48
 70
     1
102
RTVSPropertyOp49
 70
     1
102
RTVSPropertyOp50
 70
     1
102
RTVSPropertyOp51
 70
     0
102
RTVSPropertyOp52
 70
     0
102
RTVSPropertyOp53
 70
     1
102
RTVSPropertyOp54
 70
     1
102
RTVSPropertyOp55
 70
     1
102
RTVSPropertyOp56
 70
     1
102
RTVSPropertyOp57
 70
     1
102
RTVSPropertyOp58
 70
     1
102
RTVSPropertyOp59
 70
     1
102
RTVSPropertyOp60
 70
     1
102
RTVSPropertyOp61
 70
     1
102
RTVSPropertyOp62
 70
     1
  0
XRECORD
  5
44B
102
{ACAD_REACTORS
330
44A
102
}
330
44A
100
AcDbXrecord
280
     1
102
RTVSPost2010Prop28
280
     0
102
RTVSPost2010PropOp28
 70
     1
102
RTVSPost2010Prop29
280
     1
102
RTVSPost2010PropOp29
 70
     1
102
RTVSPost2010Prop30
280
     1
102
RTVSPost2010PropOp30
 70
     1
102
RTVSPost2010Prop31
280
     0
102
RTVSPost2010PropOp31
 70
     1
102
RTVSPost2010Prop32
280
     0
102
RTVSPost2010PropOp32
 70
     1
102
RTVSPost2010Prop33
280
     0
102
RTVSPost2010PropOp33
 70
     1
102
RTVSPost2010Prop34
280
     0
102
RTVSPost2010PropOp34
 70
     1
102
RTVSPost2010Prop35
280
     0
102
RTVSPost2010PropOp35
 70
     1
102
RTVSPost2010Prop36
280
     0
102
RTVSPost2010PropOp36
 70
     1
102
RTVSPost2010Prop37
 90
       50
102
RTVSPost2010PropOp37
 70
     1
102
RTVSPost2010Prop38
140
0.0
102
RTVSPost2010PropOp38
 70
     1
102
RTVSPost2010Prop39
140
1.0
102
RTVSPost2010PropOp39
 70
     1
102
RTVSPost2010Prop40
 90
        0
102
RTVSPost2010PropOp40
 70
     1
102
RTVSPost2010Prop41ColorIndex
 90
       18
102
RTVSPost2010Prop41ColorRGB
 90
        0
102
RTVSPost2010PropOp41
 70
     1
102
RTVSPost2010Prop42
 90
       50
102
RTVSPost2010PropOp42
 70
     1
102
RTVSPost2010Prop43
 90
        3
102
RTVSPost2010PropOp43
 70
     1
102
RTVSPost2010Prop44ColorIndex
 90
        5
102
RTVSPost2010Prop44ColorRGB
 90
      255
102
RTVSPost2010PropOp44
 70
     1
102
RTVSPost2010Prop45
280
     0
102
RTVSPost2010PropOp45
 70
     1
102
RTVSPost2010Prop46
 90
       50
102
RTVSPost2010PropOp46
 70
     1
102
RTVSPost2010Prop47
 90
       50
102
RTVSPost2010PropOp47
 70
     1
102
RTVSPost2010Prop48
 90
       50
102
RTVSPost2010PropOp48
 70
     1
102
RTVSPost2010Prop49
280
     0
102
RTVSPost2010PropOp49
 70
     1
102
RTVSPost2010Prop50
 90
       50
102
RTVSPost2010PropOp50
 70
     1
102
RTVSPost2010Prop51ColorIndex
 90
      256
102
RTVSPost2010Prop51ColorRGB
 90
-16777216
102
RTVSPost2010PropOp51
 70
     0
102
RTVSPost2010Prop52
140
1.0
102
RTVSPost2010PropOp52
 70
     0
102
RTVSPost2010Prop53
 90
        2
102
RTVSPost2010PropOp53
 70
     1
102
RTVSPost2010Prop54
  1
strokes_ogs.tif
102
RTVSPost2010PropOp54
 70
     1
102
RTVSPost2010Prop55
280
     0
102
RTVSPost2010PropOp55
 70
     1
102
RTVSPost2010Prop56
140
1.0
102
RTVSPost2010PropOp56
 70
     1
102
RTVSPost2010Prop57
140
1.0
102
RTVSPost2010PropOp57
 70
     1
102
RTVSPropertyOp0
 70
     1
102
RTVSPropertyOp1
 70
     1
102
RTVSPropertyOp2
 70
     1
102
RTVSPropertyOp3
 70
     1
102
RTVSPropertyOp4
 70
     1
102
RTVSPropertyOp5
 70
     1
102
RTVSPropertyOp6
 70
     1
102
RTVSPropertyOp7
 70
     1
102
RTVSPropertyOp8
 70
     1
102
RTVSPropertyOp9
 70
     1
102
RTVSPropertyOp10
 70
     1
102
RTVSPropertyOp11
 70
     1
102
RTVSPropertyOp12
 70
     1
102
RTVSPropertyOp13
 70
     1
102
RTVSPropertyOp14
 70
     1
102
RTVSPropertyOp15
 70
     1
102
RTVSPropertyOp16
 70
     1
102
RTVSPropertyOp17
 70
     1
102
RTVSPropertyOp18
 70
     1
102
RTVSPropertyOp19
 70
     1
102
RTVSPropertyOp20
 70
     1
102
RTVSPropertyOp21
 70
     1
102
RTVSPropertyOp22
 70
     1
102
RTVSPropertyOp23
 70
     1
102
RTVSPropertyOp24
 70
     1
102
RTVSPropertyOp25
 70
     1
102
RTVSPropertyOp26
 70
     1
102
RTVSPropertyOp27
 70
     1
102
RTVSPropertyOp28
 70
     1
102
RTVSPropertyOp29
 70
     1
102
RTVSPropertyOp30
 70
     1
102
RTVSPropertyOp31
 70
     1
102
RTVSPropertyOp32
 70
     1
102
RTVSPropertyOp33
 70
     1
102
RTVSPropertyOp34
 70
     1
102
RTVSPropertyOp35
 70
     1
102
RTVSPropertyOp36
 70
     1
102
RTVSPropertyOp37
 70
     1
102
RTVSPropertyOp38
 70
     1
102
RTVSPropertyOp39
 70
     1
102
RTVSPropertyOp40
 70
     1
102
RTVSPropertyOp41
 70
     1
102
RTVSPropertyOp42
 70
     1
102
RTVSPropertyOp43
 70
     1
102
RTVSPropertyOp44
 70
     1
102
RTVSPropertyOp45
 70
     1
102
RTVSPropertyOp46
 70
     1
102
RTVSPropertyOp47
 70
     1
102
RTVSPropertyOp48
 70
     1
102
RTVSPropertyOp49
 70
     1
102
RTVSPropertyOp50
 70
     1
102
RTVSPropertyOp51
 70
     0
102
RTVSPropertyOp52
 70
     0
102
RTVSPropertyOp53
 70
     1
102
RTVSPropertyOp54
 70
     1
102
RTVSPropertyOp55
 70
     1
102
RTVSPropertyOp56
 70
     1
102
RTVSPropertyOp57
 70
     1
102
RTVSPropertyOp58
 70
     1
102
RTVSPropertyOp59
 70
     1
102
RTVSPropertyOp60
 70
     1
102
RTVSPropertyOp61
 70
     1
102
RTVSPropertyOp62
 70
     1
  0
XRECORD
  5
44D
102
{ACAD_REACTORS
330
44C
102
}
330
44C
100
AcDbXrecord
280
     1
102
RTVSPost2010Prop28
280
     0
102
RTVSPost2010PropOp28
 70
     1
102
RTVSPost2010Prop29
280
     1
102
RTVSPost2010PropOp29
 70
     1
102
RTVSPost2010Prop30
280
     1
102
RTVSPost2010PropOp30
 70
     1
102
RTVSPost2010Prop31
280
     0
102
RTVSPost2010PropOp31
 70
     1
102
RTVSPost2010Prop32
280
     0
102
RTVSPost2010PropOp32
 70
     1
102
RTVSPost2010Prop33
280
     0
102
RTVSPost2010PropOp33
 70
     1
102
RTVSPost2010Prop34
280
     0
102
RTVSPost2010PropOp34
 70
     1
102
RTVSPost2010Prop35
280
     0
102
RTVSPost2010PropOp35
 70
     1
102
RTVSPost2010Prop36
280
     0
102
RTVSPost2010PropOp36
 70
     1
102
RTVSPost2010Prop37
 90
       50
102
RTVSPost2010PropOp37
 70
     1
102
RTVSPost2010Prop38
140
0.0
102
RTVSPost2010PropOp38
 70
     1
102
RTVSPost2010Prop39
140
1.0
102
RTVSPost2010PropOp39
 70
     1
102
RTVSPost2010Prop40
 90
        0
102
RTVSPost2010PropOp40
 70
     1
102
RTVSPost2010Prop41ColorIndex
 90
       18
102
RTVSPost2010Prop41ColorRGB
 90
        0
102
RTVSPost2010PropOp41
 70
     1
102
RTVSPost2010Prop42
 90
       50
102
RTVSPost2010PropOp42
 70
     1
102
RTVSPost2010Prop43
 90
        3
102
RTVSPost2010PropOp43
 70
     1
102
RTVSPost2010Prop44ColorIndex
 90
        5
102
RTVSPost2010Prop44ColorRGB
 90
      255
102
RTVSPost2010PropOp44
 70
     1
102
RTVSPost2010Prop45
280
     0
102
RTVSPost2010PropOp45
 70
     1
102
RTVSPost2010Prop46
 90
       50
102
RTVSPost2010PropOp46
 70
     1
102
RTVSPost2010Prop47
 90
       50
102
RTVSPost2010PropOp47
 70
     1
102
RTVSPost2010Prop48
 90
       50
102
RTVSPost2010PropOp48
 70
     1
102
RTVSPost2010Prop49
280
     0
102
RTVSPost2010PropOp49
 70
     1
102
RTVSPost2010Prop50
 90
       50
102
RTVSPost2010PropOp50
 70
     1
102
RTVSPost2010Prop51ColorIndex
 90
      256
102
RTVSPost2010Prop51ColorRGB
 90
-16777216
102
RTVSPost2010PropOp51
 70
     0
102
RTVSPost2010Prop52
140
1.0
102
RTVSPost2010PropOp52
 70
     0
102
RTVSPost2010Prop53
 90
        2
102
RTVSPost2010PropOp53
 70
     1
102
RTVSPost2010Prop54
  1
strokes_ogs.tif
102
RTVSPost2010PropOp54
 70
     1
102
RTVSPost2010Prop55
280
     0
102
RTVSPost2010PropOp55
 70
     1
102
RTVSPost2010Prop56
140
1.0
102
RTVSPost2010PropOp56
 70
     1
102
RTVSPost2010Prop57
140
1.0
102
RTVSPost2010PropOp57
 70
     1
102
RTVSPropertyOp0
 70
     1
102
RTVSPropertyOp1
 70
     1
102
RTVSPropertyOp2
 70
     1
102
RTVSPropertyOp3
 70
     1
102
RTVSPropertyOp4
 70
     1
102
RTVSPropertyOp5
 70
     1
102
RTVSPropertyOp6
 70
     1
102
RTVSPropertyOp7
 70
     1
102
RTVSPropertyOp8
 70
     1
102
RTVSPropertyOp9
 70
     1
102
RTVSPropertyOp10
 70
     1
102
RTVSPropertyOp11
 70
     1
102
RTVSPropertyOp12
 70
     1
102
RTVSPropertyOp13
 70
     1
102
RTVSPropertyOp14
 70
     1
102
RTVSPropertyOp15
 70
     1
102
RTVSPropertyOp16
 70
     1
102
RTVSPropertyOp17
 70
     1
102
RTVSPropertyOp18
 70
     1
102
RTVSPropertyOp19
 70
     1
102
RTVSPropertyOp20
 70
     1
102
RTVSPropertyOp21
 70
     1
102
RTVSPropertyOp22
 70
     1
102
RTVSPropertyOp23
 70
     1
102
RTVSPropertyOp24
 70
     1
102
RTVSPropertyOp25
 70
     1
102
RTVSPropertyOp26
 70
     1
102
RTVSPropertyOp27
 70
     1
102
RTVSPropertyOp28
 70
     1
102
RTVSPropertyOp29
 70
     1
102
RTVSPropertyOp30
 70
     1
102
RTVSPropertyOp31
 70
     1
102
RTVSPropertyOp32
 70
     1
102
RTVSPropertyOp33
 70
     1
102
RTVSPropertyOp34
 70
     1
102
RTVSPropertyOp35
 70
     1
102
RTVSPropertyOp36
 70
     1
102
RTVSPropertyOp37
 70
     1
102
RTVSPropertyOp38
 70
     1
102
RTVSPropertyOp39
 70
     1
102
RTVSPropertyOp40
 70
     1
102
RTVSPropertyOp41
 70
     1
102
RTVSPropertyOp42
 70
     1
102
RTVSPropertyOp43
 70
     1
102
RTVSPropertyOp44
 70
     1
102
RTVSPropertyOp45
 70
     1
102
RTVSPropertyOp46
 70
     1
102
RTVSPropertyOp47
 70
     1
102
RTVSPropertyOp48
 70
     1
102
RTVSPropertyOp49
 70
     1
102
RTVSPropertyOp50
 70
     1
102
RTVSPropertyOp51
 70
     0
102
RTVSPropertyOp52
 70
     0
102
RTVSPropertyOp53
 70
     1
102
RTVSPropertyOp54
 70
     1
102
RTVSPropertyOp55
 70
     1
102
RTVSPropertyOp56
 70
     1
102
RTVSPropertyOp57
 70
     1
102
RTVSPropertyOp58
 70
     1
102
RTVSPropertyOp59
 70
     1
102
RTVSPropertyOp60
 70
     1
102
RTVSPropertyOp61
 70
     1
102
RTVSPropertyOp62
 70
     1
  0
XRECORD
  5
44F
102
{ACAD_REACTORS
330
44E
102
}
330
44E
100
AcDbXrecord
280
     1
102
RTVSPost2010Prop28
280
     0
102
RTVSPost2010PropOp28
 70
     1
102
RTVSPost2010Prop29
280
     1
102
RTVSPost2010PropOp29
 70
     1
102
RTVSPost2010Prop30
280
     1
102
RTVSPost2010PropOp30
 70
     1
102
RTVSPost2010Prop31
280
     0
102
RTVSPost2010PropOp31
 70
     1
102
RTVSPost2010Prop32
280
     0
102
RTVSPost2010PropOp32
 70
     1
102
RTVSPost2010Prop33
280
     0
102
RTVSPost2010PropOp33
 70
     1
102
RTVSPost2010Prop34
280
     0
102
RTVSPost2010PropOp34
 70
     1
102
RTVSPost2010Prop35
280
     0
102
RTVSPost2010PropOp35
 70
     1
102
RTVSPost2010Prop36
280
     0
102
RTVSPost2010PropOp36
 70
     1
102
RTVSPost2010Prop37
 90
       50
102
RTVSPost2010PropOp37
 70
     1
102
RTVSPost2010Prop38
140
0.0
102
RTVSPost2010PropOp38
 70
     1
102
RTVSPost2010Prop39
140
1.0
102
RTVSPost2010PropOp39
 70
     1
102
RTVSPost2010Prop40
 90
        0
102
RTVSPost2010PropOp40
 70
     1
102
RTVSPost2010Prop41ColorIndex
 90
       18
102
RTVSPost2010Prop41ColorRGB
 90
        0
102
RTVSPost2010PropOp41
 70
     1
102
RTVSPost2010Prop42
 90
       50
102
RTVSPost2010PropOp42
 70
     1
102
RTVSPost2010Prop43
 90
        3
102
RTVSPost2010PropOp43
 70
     1
102
RTVSPost2010Prop44ColorIndex
 90
        5
102
RTVSPost2010Prop44ColorRGB
 90
      255
102
RTVSPost2010PropOp44
 70
     1
102
RTVSPost2010Prop45
280
     0
102
RTVSPost2010PropOp45
 70
     1
102
RTVSPost2010Prop46
 90
       50
102
RTVSPost2010PropOp46
 70
     1
102
RTVSPost2010Prop47
 90
       50
102
RTVSPost2010PropOp47
 70
     1
102
RTVSPost2010Prop48
 90
       50
102
RTVSPost2010PropOp48
 70
     1
102
RTVSPost2010Prop49
280
     0
102
RTVSPost2010PropOp49
 70
     1
102
RTVSPost2010Prop50
 90
       50
102
RTVSPost2010PropOp50
 70
     1
102
RTVSPost2010Prop51ColorIndex
 90
      256
102
RTVSPost2010Prop51ColorRGB
 90
-16777216
102
RTVSPost2010PropOp51
 70
     0
102
RTVSPost2010Prop52
140
1.0
102
RTVSPost2010PropOp52
 70
     0
102
RTVSPost2010Prop53
 90
        2
102
RTVSPost2010PropOp53
 70
     1
102
RTVSPost2010Prop54
  1
strokes_ogs.tif
102
RTVSPost2010PropOp54
 70
     1
102
RTVSPost2010Prop55
280
     0
102
RTVSPost2010PropOp55
 70
     1
102
RTVSPost2010Prop56
140
1.0
102
RTVSPost2010PropOp56
 70
     1
102
RTVSPost2010Prop57
140
1.0
102
RTVSPost2010PropOp57
 70
     1
102
RTVSPropertyOp0
 70
     1
102
RTVSPropertyOp1
 70
     1
102
RTVSPropertyOp2
 70
     1
102
RTVSPropertyOp3
 70
     1
102
RTVSPropertyOp4
 70
     1
102
RTVSPropertyOp5
 70
     1
102
RTVSPropertyOp6
 70
     1
102
RTVSPropertyOp7
 70
     1
102
RTVSPropertyOp8
 70
     1
102
RTVSPropertyOp9
 70
     1
102
RTVSPropertyOp10
 70
     1
102
RTVSPropertyOp11
 70
     1
102
RTVSPropertyOp12
 70
     1
102
RTVSPropertyOp13
 70
     1
102
RTVSPropertyOp14
 70
     1
102
RTVSPropertyOp15
 70
     1
102
RTVSPropertyOp16
 70
     1
102
RTVSPropertyOp17
 70
     1
102
RTVSPropertyOp18
 70
     1
102
RTVSPropertyOp19
 70
     1
102
RTVSPropertyOp20
 70
     1
102
RTVSPropertyOp21
 70
     1
102
RTVSPropertyOp22
 70
     1
102
RTVSPropertyOp23
 70
     1
102
RTVSPropertyOp24
 70
     1
102
RTVSPropertyOp25
 70
     1
102
RTVSPropertyOp26
 70
     1
102
RTVSPropertyOp27
 70
     1
102
RTVSPropertyOp28
 70
     1
102
RTVSPropertyOp29
 70
     1
102
RTVSPropertyOp30
 70
     1
102
RTVSPropertyOp31
 70
     1
102
RTVSPropertyOp32
 70
     1
102
RTVSPropertyOp33
 70
     1
102
RTVSPropertyOp34
 70
     1
102
RTVSPropertyOp35
 70
     1
102
RTVSPropertyOp36
 70
     1
102
RTVSPropertyOp37
 70
     1
102
RTVSPropertyOp38
 70
     1
102
RTVSPropertyOp39
 70
     1
102
RTVSPropertyOp40
 70
     1
102
RTVSPropertyOp41
 70
     1
102
RTVSPropertyOp42
 70
     1
102
RTVSPropertyOp43
 70
     1
102
RTVSPropertyOp44
 70
     1
102
RTVSPropertyOp45
 70
     1
102
RTVSPropertyOp46
 70
     1
102
RTVSPropertyOp47
 70
     1
102
RTVSPropertyOp48
 70
     1
102
RTVSPropertyOp49
 70
     1
102
RTVSPropertyOp50
 70
     1
102
RTVSPropertyOp51
 70
     0
102
RTVSPropertyOp52
 70
     0
102
RTVSPropertyOp53
 70
     1
102
RTVSPropertyOp54
 70
     1
102
RTVSPropertyOp55
 70
     1
102
RTVSPropertyOp56
 70
     1
102
RTVSPropertyOp57
 70
     1
102
RTVSPropertyOp58
 70
     1
102
RTVSPropertyOp59
 70
     1
102
RTVSPropertyOp60
 70
     1
102
RTVSPropertyOp61
 70
     1
102
RTVSPropertyOp62
 70
     1
  0
XRECORD
  5
451
102
{ACAD_REACTORS
330
450
102
}
330
450
100
AcDbXrecord
280
     1
102
RTVSPost2010Prop28
280
     0
102
RTVSPost2010PropOp28
 70
     1
102
RTVSPost2010Prop29
280
     1
102
RTVSPost2010PropOp29
 70
     1
102
RTVSPost2010Prop30
280
     1
102
RTVSPost2010PropOp30
 70
     1
102
RTVSPost2010Prop31
280
     0
102
RTVSPost2010PropOp31
 70
     1
102
RTVSPost2010Prop32
280
     0
102
RTVSPost2010PropOp32
 70
     1
102
RTVSPost2010Prop33
280
     0
102
RTVSPost2010PropOp33
 70
     1
102
RTVSPost2010Prop34
280
     0
102
RTVSPost2010PropOp34
 70
     1
102
RTVSPost2010Prop35
280
     0
102
RTVSPost2010PropOp35
 70
     1
102
RTVSPost2010Prop36
280
     0
102
RTVSPost2010PropOp36
 70
     1
102
RTVSPost2010Prop37
 90
       50
102
RTVSPost2010PropOp37
 70
     1
102
RTVSPost2010Prop38
140
0.0
102
RTVSPost2010PropOp38
 70
     1
102
RTVSPost2010Prop39
140
1.0
102
RTVSPost2010PropOp39
 70
     1
102
RTVSPost2010Prop40
 90
        0
102
RTVSPost2010PropOp40
 70
     1
102
RTVSPost2010Prop41ColorIndex
 90
       18
102
RTVSPost2010Prop41ColorRGB
 90
        0
102
RTVSPost2010PropOp41
 70
     1
102
RTVSPost2010Prop42
 90
       50
102
RTVSPost2010PropOp42
 70
     1
102
RTVSPost2010Prop43
 90
        3
102
RTVSPost2010PropOp43
 70
     1
102
RTVSPost2010Prop44ColorIndex
 90
        5
102
RTVSPost2010Prop44ColorRGB
 90
      255
102
RTVSPost2010PropOp44
 70
     1
102
RTVSPost2010Prop45
280
     0
102
RTVSPost2010PropOp45
 70
     1
102
RTVSPost2010Prop46
 90
       50
102
RTVSPost2010PropOp46
 70
     1
102
RTVSPost2010Prop47
 90
       50
102
RTVSPost2010PropOp47
 70
     1
102
RTVSPost2010Prop48
 90
       50
102
RTVSPost2010PropOp48
 70
     1
102
RTVSPost2010Prop49
280
     0
102
RTVSPost2010PropOp49
 70
     1
102
RTVSPost2010Prop50
 90
       50
102
RTVSPost2010PropOp50
 70
     1
102
RTVSPost2010Prop51ColorIndex
 90
      256
102
RTVSPost2010Prop51ColorRGB
 90
-16777216
102
RTVSPost2010PropOp51
 70
     0
102
RTVSPost2010Prop52
140
1.0
102
RTVSPost2010PropOp52
 70
     0
102
RTVSPost2010Prop53
 90
        2
102
RTVSPost2010PropOp53
 70
     1
102
RTVSPost2010Prop54
  1
strokes_ogs.tif
102
RTVSPost2010PropOp54
 70
     1
102
RTVSPost2010Prop55
280
     0
102
RTVSPost2010PropOp55
 70
     1
102
RTVSPost2010Prop56
140
1.0
102
RTVSPost2010PropOp56
 70
     1
102
RTVSPost2010Prop57
140
1.0
102
RTVSPost2010PropOp57
 70
     1
102
RTVSPropertyOp0
 70
     1
102
RTVSPropertyOp1
 70
     1
102
RTVSPropertyOp2
 70
     1
102
RTVSPropertyOp3
 70
     1
102
RTVSPropertyOp4
 70
     1
102
RTVSPropertyOp5
 70
     1
102
RTVSPropertyOp6
 70
     1
102
RTVSPropertyOp7
 70
     1
102
RTVSPropertyOp8
 70
     1
102
RTVSPropertyOp9
 70
     1
102
RTVSPropertyOp10
 70
     1
102
RTVSPropertyOp11
 70
     1
102
RTVSPropertyOp12
 70
     1
102
RTVSPropertyOp13
 70
     1
102
RTVSPropertyOp14
 70
     1
102
RTVSPropertyOp15
 70
     1
102
RTVSPropertyOp16
 70
     1
102
RTVSPropertyOp17
 70
     1
102
RTVSPropertyOp18
 70
     1
102
RTVSPropertyOp19
 70
     1
102
RTVSPropertyOp20
 70
     1
102
RTVSPropertyOp21
 70
     1
102
RTVSPropertyOp22
 70
     1
102
RTVSPropertyOp23
 70
     1
102
RTVSPropertyOp24
 70
     1
102
RTVSPropertyOp25
 70
     1
102
RTVSPropertyOp26
 70
     1
102
RTVSPropertyOp27
 70
     1
102
RTVSPropertyOp28
 70
     1
102
RTVSPropertyOp29
 70
     1
102
RTVSPropertyOp30
 70
     1
102
RTVSPropertyOp31
 70
     1
102
RTVSPropertyOp32
 70
     1
102
RTVSPropertyOp33
 70
     1
102
RTVSPropertyOp34
 70
     1
102
RTVSPropertyOp35
 70
     1
102
RTVSPropertyOp36
 70
     1
102
RTVSPropertyOp37
 70
     1
102
RTVSPropertyOp38
 70
     1
102
RTVSPropertyOp39
 70
     1
102
RTVSPropertyOp40
 70
     1
102
RTVSPropertyOp41
 70
     1
102
RTVSPropertyOp42
 70
     1
102
RTVSPropertyOp43
 70
     1
102
RTVSPropertyOp44
 70
     1
102
RTVSPropertyOp45
 70
     1
102
RTVSPropertyOp46
 70
     1
102
RTVSPropertyOp47
 70
     1
102
RTVSPropertyOp48
 70
     1
102
RTVSPropertyOp49
 70
     1
102
RTVSPropertyOp50
 70
     1
102
RTVSPropertyOp51
 70
     0
102
RTVSPropertyOp52
 70
     0
102
RTVSPropertyOp53
 70
     1
102
RTVSPropertyOp54
 70
     1
102
RTVSPropertyOp55
 70
     1
102
RTVSPropertyOp56
 70
     1
102
RTVSPropertyOp57
 70
     1
102
RTVSPropertyOp58
 70
     1
102
RTVSPropertyOp59
 70
     1
102
RTVSPropertyOp60
 70
     1
102
RTVSPropertyOp61
 70
     1
102
RTVSPropertyOp62
 70
     1
  0
XRECORD
  5
459
102
{ACAD_REACTORS
330
458
102
}
330
458
100
AcDbXrecord
280
     1
102
RTVSPost2010Prop28
280
     0
102
RTVSPost2010PropOp28
 70
     1
102
RTVSPost2010Prop29
280
     1
102
RTVSPost2010PropOp29
 70
     1
102
RTVSPost2010Prop30
280
     1
102
RTVSPost2010PropOp30
 70
     1
102
RTVSPost2010Prop31
280
     0
102
RTVSPost2010PropOp31
 70
     1
102
RTVSPost2010Prop32
280
     0
102
RTVSPost2010PropOp32
 70
     1
102
RTVSPost2010Prop33
280
     0
102
RTVSPost2010PropOp33
 70
     1
102
RTVSPost2010Prop34
280
     0
102
RTVSPost2010PropOp34
 70
     1
102
RTVSPost2010Prop35
280
     0
102
RTVSPost2010PropOp35
 70
     1
102
RTVSPost2010Prop36
280
     0
102
RTVSPost2010PropOp36
 70
     1
102
RTVSPost2010Prop37
 90
       50
102
RTVSPost2010PropOp37
 70
     1
102
RTVSPost2010Prop38
140
0.0
102
RTVSPost2010PropOp38
 70
     1
102
RTVSPost2010Prop39
140
1.0
102
RTVSPost2010PropOp39
 70
     1
102
RTVSPost2010Prop40
 90
        0
102
RTVSPost2010PropOp40
 70
     1
102
RTVSPost2010Prop41ColorIndex
 90
       18
102
RTVSPost2010Prop41ColorRGB
 90
        0
102
RTVSPost2010PropOp41
 70
     1
102
RTVSPost2010Prop42
 90
       50
102
RTVSPost2010PropOp42
 70
     1
102
RTVSPost2010Prop43
 90
        3
102
RTVSPost2010PropOp43
 70
     1
102
RTVSPost2010Prop44ColorIndex
 90
        5
102
RTVSPost2010Prop44ColorRGB
 90
      255
102
RTVSPost2010PropOp44
 70
     1
102
RTVSPost2010Prop45
280
     0
102
RTVSPost2010PropOp45
 70
     1
102
RTVSPost2010Prop46
 90
       50
102
RTVSPost2010PropOp46
 70
     1
102
RTVSPost2010Prop47
 90
       50
102
RTVSPost2010PropOp47
 70
     1
102
RTVSPost2010Prop48
 90
       50
102
RTVSPost2010PropOp48
 70
     1
102
RTVSPost2010Prop49
280
     0
102
RTVSPost2010PropOp49
 70
     1
102
RTVSPost2010Prop50
 90
       50
102
RTVSPost2010PropOp50
 70
     1
102
RTVSPost2010Prop51ColorIndex
 90
      256
102
RTVSPost2010Prop51ColorRGB
 90
-16777216
102
RTVSPost2010PropOp51
 70
     0
102
RTVSPost2010Prop52
140
1.0
102
RTVSPost2010PropOp52
 70
     0
102
RTVSPost2010Prop53
 90
        2
102
RTVSPost2010PropOp53
 70
     1
102
RTVSPost2010Prop54
  1
strokes_ogs.tif
102
RTVSPost2010PropOp54
 70
     1
102
RTVSPost2010Prop55
280
     0
102
RTVSPost2010PropOp55
 70
     1
102
RTVSPost2010Prop56
140
1.0
102
RTVSPost2010PropOp56
 70
     1
102
RTVSPost2010Prop57
140
1.0
102
RTVSPost2010PropOp57
 70
     1
102
RTVSPropertyOp0
 70
     1
102
RTVSPropertyOp1
 70
     1
102
RTVSPropertyOp2
 70
     1
102
RTVSPropertyOp3
 70
     1
102
RTVSPropertyOp4
 70
     1
102
RTVSPropertyOp5
 70
     1
102
RTVSPropertyOp6
 70
     1
102
RTVSPropertyOp7
 70
     1
102
RTVSPropertyOp8
 70
     1
102
RTVSPropertyOp9
 70
     1
102
RTVSPropertyOp10
 70
     1
102
RTVSPropertyOp11
 70
     1
102
RTVSPropertyOp12
 70
     1
102
RTVSPropertyOp13
 70
     1
102
RTVSPropertyOp14
 70
     1
102
RTVSPropertyOp15
 70
     1
102
RTVSPropertyOp16
 70
     1
102
RTVSPropertyOp17
 70
     1
102
RTVSPropertyOp18
 70
     1
102
RTVSPropertyOp19
 70
     1
102
RTVSPropertyOp20
 70
     1
102
RTVSPropertyOp21
 70
     1
102
RTVSPropertyOp22
 70
     1
102
RTVSPropertyOp23
 70
     1
102
RTVSPropertyOp24
 70
     1
102
RTVSPropertyOp25
 70
     1
102
RTVSPropertyOp26
 70
     1
102
RTVSPropertyOp27
 70
     1
102
RTVSPropertyOp28
 70
     1
102
RTVSPropertyOp29
 70
     1
102
RTVSPropertyOp30
 70
     1
102
RTVSPropertyOp31
 70
     1
102
RTVSPropertyOp32
 70
     1
102
RTVSPropertyOp33
 70
     1
102
RTVSPropertyOp34
 70
     1
102
RTVSPropertyOp35
 70
     1
102
RTVSPropertyOp36
 70
     1
102
RTVSPropertyOp37
 70
     1
102
RTVSPropertyOp38
 70
     1
102
RTVSPropertyOp39
 70
     1
102
RTVSPropertyOp40
 70
     1
102
RTVSPropertyOp41
 70
     1
102
RTVSPropertyOp42
 70
     1
102
RTVSPropertyOp43
 70
     1
102
RTVSPropertyOp44
 70
     1
102
RTVSPropertyOp45
 70
     1
102
RTVSPropertyOp46
 70
     1
102
RTVSPropertyOp47
 70
     1
102
RTVSPropertyOp48
 70
     1
102
RTVSPropertyOp49
 70
     1
102
RTVSPropertyOp50
 70
     1
102
RTVSPropertyOp51
 70
     0
102
RTVSPropertyOp52
 70
     0
102
RTVSPropertyOp53
 70
     1
102
RTVSPropertyOp54
 70
     1
102
RTVSPropertyOp55
 70
     1
102
RTVSPropertyOp56
 70
     1
102
RTVSPropertyOp57
 70
     1
102
RTVSPropertyOp58
 70
     1
102
RTVSPropertyOp59
 70
     1
102
RTVSPropertyOp60
 70
     1
102
RTVSPropertyOp61
 70
     1
102
RTVSPropertyOp62
 70
     1
  0
XRECORD
  5
475
102
{ACAD_REACTORS
330
474
102
}
330
474
100
AcDbXrecord
280
     1
102
RTVSPost2010Prop28
280
     0
102
RTVSPost2010PropOp28
 70
     1
102
RTVSPost2010Prop29
280
     1
102
RTVSPost2010PropOp29
 70
     1
102
RTVSPost2010Prop30
280
     1
102
RTVSPost2010PropOp30
 70
     1
102
RTVSPost2010Prop31
280
     0
102
RTVSPost2010PropOp31
 70
     1
102
RTVSPost2010Prop32
280
     0
102
RTVSPost2010PropOp32
 70
     1
102
RTVSPost2010Prop33
280
     0
102
RTVSPost2010PropOp33
 70
     1
102
RTVSPost2010Prop34
280
     0
102
RTVSPost2010PropOp34
 70
     1
102
RTVSPost2010Prop35
280
     0
102
RTVSPost2010PropOp35
 70
     1
102
RTVSPost2010Prop36
280
     0
102
RTVSPost2010PropOp36
 70
     1
102
RTVSPost2010Prop37
 90
       50
102
RTVSPost2010PropOp37
 70
     0
102
RTVSPost2010Prop38
140
0.0
102
RTVSPost2010PropOp38
 70
     0
102
RTVSPost2010Prop39
140
1.0
102
RTVSPost2010PropOp39
 70
     0
102
RTVSPost2010Prop40
 90
        0
102
RTVSPost2010PropOp40
 70
     0
102
RTVSPost2010Prop41ColorIndex
 90
       18
102
RTVSPost2010Prop41ColorRGB
 90
        0
102
RTVSPost2010PropOp41
 70
     0
102
RTVSPost2010Prop42
 90
       50
102
RTVSPost2010PropOp42
 70
     0
102
RTVSPost2010Prop43
 90
        3
102
RTVSPost2010PropOp43
 70
     0
102
RTVSPost2010Prop44ColorIndex
 90
        5
102
RTVSPost2010Prop44ColorRGB
 90
      255
102
RTVSPost2010PropOp44
 70
     0
102
RTVSPost2010Prop45
280
     0
102
RTVSPost2010PropOp45
 70
     1
102
RTVSPost2010Prop46
 90
       50
102
RTVSPost2010PropOp46
 70
     0
102
RTVSPost2010Prop47
 90
       50
102
RTVSPost2010PropOp47
 70
     0
102
RTVSPost2010Prop48
 90
       50
102
RTVSPost2010PropOp48
 70
     0
102
RTVSPost2010Prop49
280
     0
102
RTVSPost2010PropOp49
 70
     1
102
RTVSPost2010Prop50
 90
       50
102
RTVSPost2010PropOp50
 70
     0
102
RTVSPost2010Prop51ColorIndex
 90
      256
102
RTVSPost2010Prop51ColorRGB
 90
-16777216
102
RTVSPost2010PropOp51
 70
     0
102
RTVSPost2010Prop52
140
1.0
102
RTVSPost2010PropOp52
 70
     0
102
RTVSPost2010Prop53
 90
        2
102
RTVSPost2010PropOp53
 70
     0
102
RTVSPost2010Prop54
  1
strokes_ogs.tif
102
RTVSPost2010PropOp54
 70
     0
102
RTVSPost2010Prop55
280
     0
102
RTVSPost2010PropOp55
 70
     1
102
RTVSPost2010Prop56
140
1.0
102
RTVSPost2010PropOp56
 70
     0
102
RTVSPost2010Prop57
140
1.0
102
RTVSPost2010PropOp57
 70
     0
102
RTVSPropertyOp0
 70
     0
102
RTVSPropertyOp1
 70
     0
102
RTVSPropertyOp2
 70
     0
102
RTVSPropertyOp3
 70
     0
102
RTVSPropertyOp4
 70
     0
102
RTVSPropertyOp5
 70
     0
102
RTVSPropertyOp6
 70
     0
102
RTVSPropertyOp7
 70
     0
102
RTVSPropertyOp8
 70
     0
102
RTVSPropertyOp9
 70
     0
102
RTVSPropertyOp10
 70
     0
102
RTVSPropertyOp11
 70
     0
102
RTVSPropertyOp12
 70
     0
102
RTVSPropertyOp13
 70
     0
102
RTVSPropertyOp14
 70
     2
102
RTVSPropertyOp15
 70
     0
102
RTVSPropertyOp16
 70
     0
102
RTVSPropertyOp17
 70
     0
102
RTVSPropertyOp18
 70
     0
102
RTVSPropertyOp19
 70
     0
102
RTVSPropertyOp20
 70
     0
102
RTVSPropertyOp21
 70
     0
102
RTVSPropertyOp22
 70
     0
102
RTVSPropertyOp23
 70
     0
102
RTVSPropertyOp24
 70
     0
102
RTVSPropertyOp25
 70
     0
102
RTVSPropertyOp26
 70
     0
102
RTVSPropertyOp27
 70
     0
102
RTVSPropertyOp28
 70
     1
102
RTVSPropertyOp29
 70
     1
102
RTVSPropertyOp30
 70
     1
102
RTVSPropertyOp31
 70
     1
102
RTVSPropertyOp32
 70
     1
102
RTVSPropertyOp33
 70
     1
102
RTVSPropertyOp34
 70
     1
102
RTVSPropertyOp35
 70
     1
102
RTVSPropertyOp36
 70
     1
102
RTVSPropertyOp37
 70
     0
102
RTVSPropertyOp38
 70
     0
102
RTVSPropertyOp39
 70
     0
102
RTVSPropertyOp40
 70
     0
102
RTVSPropertyOp41
 70
     0
102
RTVSPropertyOp42
 70
     0
102
RTVSPropertyOp43
 70
     0
102
RTVSPropertyOp44
 70
     0
102
RTVSPropertyOp45
 70
     1
102
RTVSPropertyOp46
 70
     0
102
RTVSPropertyOp47
 70
     0
102
RTVSPropertyOp48
 70
     0
102
RTVSPropertyOp49
 70
     1
102
RTVSPropertyOp50
 70
     0
102
RTVSPropertyOp51
 70
     0
102
RTVSPropertyOp52
 70
     0
102
RTVSPropertyOp53
 70
     0
102
RTVSPropertyOp54
 70
     0
102
RTVSPropertyOp55
 70
     1
102
RTVSPropertyOp56
 70
     0
102
RTVSPropertyOp57
 70
     0
102
RTVSPropertyOp58
 70
     0
102
RTVSPropertyOp59
 70
     0
102
RTVSPropertyOp60
 70
     0
102
RTVSPropertyOp61
 70
     0
102
RTVSPropertyOp62
 70
     0
  0
XRECORD
  5
465
102
{ACAD_REACTORS
330
464
102
}
330
464
100
AcDbXrecord
280
     1
102
RTVSPost2010Prop28
280
     0
102
RTVSPost2010PropOp28
 70
     1
102
RTVSPost2010Prop29
280
     1
102
RTVSPost2010PropOp29
 70
     1
102
RTVSPost2010Prop30
280
     1
102
RTVSPost2010PropOp30
 70
     1
102
RTVSPost2010Prop31
280
     0
102
RTVSPost2010PropOp31
 70
     1
102
RTVSPost2010Prop32
280
     0
102
RTVSPost2010PropOp32
 70
     1
102
RTVSPost2010Prop33
280
     0
102
RTVSPost2010PropOp33
 70
     1
102
RTVSPost2010Prop34
280
     0
102
RTVSPost2010PropOp34
 70
     1
102
RTVSPost2010Prop35
280
     0
102
RTVSPost2010PropOp35
 70
     1
102
RTVSPost2010Prop36
280
     0
102
RTVSPost2010PropOp36
 70
     1
102
RTVSPost2010Prop37
 90
       50
102
RTVSPost2010PropOp37
 70
     1
102
RTVSPost2010Prop38
140
0.0
102
RTVSPost2010PropOp38
 70
     1
102
RTVSPost2010Prop39
140
1.0
102
RTVSPost2010PropOp39
 70
     1
102
RTVSPost2010Prop40
 90
        0
102
RTVSPost2010PropOp40
 70
     1
102
RTVSPost2010Prop41ColorIndex
 90
       18
102
RTVSPost2010Prop41ColorRGB
 90
        0
102
RTVSPost2010PropOp41
 70
     1
102
RTVSPost2010Prop42
 90
       50
102
RTVSPost2010PropOp42
 70
     1
102
RTVSPost2010Prop43
 90
        3
102
RTVSPost2010PropOp43
 70
     1
102
RTVSPost2010Prop44ColorIndex
 90
        5
102
RTVSPost2010Prop44ColorRGB
 90
      255
102
RTVSPost2010PropOp44
 70
     1
102
RTVSPost2010Prop45
280
     0
102
RTVSPost2010PropOp45
 70
     1
102
RTVSPost2010Prop46
 90
       50
102
RTVSPost2010PropOp46
 70
     1
102
RTVSPost2010Prop47
 90
       50
102
RTVSPost2010PropOp47
 70
     1
102
RTVSPost2010Prop48
 90
       50
102
RTVSPost2010PropOp48
 70
     1
102
RTVSPost2010Prop49
280
     0
102
RTVSPost2010PropOp49
 70
     1
102
RTVSPost2010Prop50
 90
       50
102
RTVSPost2010PropOp50
 70
     1
102
RTVSPost2010Prop51ColorIndex
 90
      256
102
RTVSPost2010Prop51ColorRGB
 90
-16777216
102
RTVSPost2010PropOp51
 70
     0
102
RTVSPost2010Prop52
140
1.0
102
RTVSPost2010PropOp52
 70
     0
102
RTVSPost2010Prop53
 90
        2
102
RTVSPost2010PropOp53
 70
     1
102
RTVSPost2010Prop54
  1
strokes_ogs.tif
102
RTVSPost2010PropOp54
 70
     1
102
RTVSPost2010Prop55
280
     0
102
RTVSPost2010PropOp55
 70
     1
102
RTVSPost2010Prop56
140
1.0
102
RTVSPost2010PropOp56
 70
     1
102
RTVSPost2010Prop57
140
1.0
102
RTVSPost2010PropOp57
 70
     1
102
RTVSPropertyOp0
 70
     1
102
RTVSPropertyOp1
 70
     1
102
RTVSPropertyOp2
 70
     1
102
RTVSPropertyOp3
 70
     1
102
RTVSPropertyOp4
 70
     1
102
RTVSPropertyOp5
 70
     1
102
RTVSPropertyOp6
 70
     1
102
RTVSPropertyOp7
 70
     1
102
RTVSPropertyOp8
 70
     1
102
RTVSPropertyOp9
 70
     1
102
RTVSPropertyOp10
 70
     1
102
RTVSPropertyOp11
 70
     1
102
RTVSPropertyOp12
 70
     1
102
RTVSPropertyOp13
 70
     1
102
RTVSPropertyOp14
 70
     1
102
RTVSPropertyOp15
 70
     1
102
RTVSPropertyOp16
 70
     1
102
RTVSPropertyOp17
 70
     1
102
RTVSPropertyOp18
 70
     1
102
RTVSPropertyOp19
 70
     1
102
RTVSPropertyOp20
 70
     1
102
RTVSPropertyOp21
 70
     1
102
RTVSPropertyOp22
 70
     1
102
RTVSPropertyOp23
 70
     1
102
RTVSPropertyOp24
 70
     1
102
RTVSPropertyOp25
 70
     1
102
RTVSPropertyOp26
 70
     1
102
RTVSPropertyOp27
 70
     1
102
RTVSPropertyOp28
 70
     1
102
RTVSPropertyOp29
 70
     1
102
RTVSPropertyOp30
 70
     1
102
RTVSPropertyOp31
 70
     1
102
RTVSPropertyOp32
 70
     1
102
RTVSPropertyOp33
 70
     1
102
RTVSPropertyOp34
 70
     1
102
RTVSPropertyOp35
 70
     1
102
RTVSPropertyOp36
 70
     1
102
RTVSPropertyOp37
 70
     1
102
RTVSPropertyOp38
 70
     1
102
RTVSPropertyOp39
 70
     1
102
RTVSPropertyOp40
 70
     1
102
RTVSPropertyOp41
 70
     1
102
RTVSPropertyOp42
 70
     1
102
RTVSPropertyOp43
 70
     1
102
RTVSPropertyOp44
 70
     1
102
RTVSPropertyOp45
 70
     1
102
RTVSPropertyOp46
 70
     1
102
RTVSPropertyOp47
 70
     1
102
RTVSPropertyOp48
 70
     1
102
RTVSPropertyOp49
 70
     1
102
RTVSPropertyOp50
 70
     1
102
RTVSPropertyOp51
 70
     0
102
RTVSPropertyOp52
 70
     0
102
RTVSPropertyOp53
 70
     1
102
RTVSPropertyOp54
 70
     1
102
RTVSPropertyOp55
 70
     1
102
RTVSPropertyOp56
 70
     1
102
RTVSPropertyOp57
 70
     1
102
RTVSPropertyOp58
 70
     1
102
RTVSPropertyOp59
 70
     1
102
RTVSPropertyOp60
 70
     1
102
RTVSPropertyOp61
 70
     1
102
RTVSPropertyOp62
 70
     1
  0
XRECORD
  5
477
102
{ACAD_REACTORS
330
476
102
}
330
476
100
AcDbXrecord
280
     1
102
RTVSPost2010Prop28
280
     0
102
RTVSPost2010PropOp28
 70
     1
102
RTVSPost2010Prop29
280
     1
102
RTVSPost2010PropOp29
 70
     1
102
RTVSPost2010Prop30
280
     1
102
RTVSPost2010PropOp30
 70
     1
102
RTVSPost2010Prop31
280
     0
102
RTVSPost2010PropOp31
 70
     1
102
RTVSPost2010Prop32
280
     0
102
RTVSPost2010PropOp32
 70
     1
102
RTVSPost2010Prop33
280
     0
102
RTVSPost2010PropOp33
 70
     1
102
RTVSPost2010Prop34
280
     0
102
RTVSPost2010PropOp34
 70
     1
102
RTVSPost2010Prop35
280
     0
102
RTVSPost2010PropOp35
 70
     1
102
RTVSPost2010Prop36
280
     0
102
RTVSPost2010PropOp36
 70
     1
102
RTVSPost2010Prop37
 90
       50
102
RTVSPost2010PropOp37
 70
     0
102
RTVSPost2010Prop38
140
0.0
102
RTVSPost2010PropOp38
 70
     0
102
RTVSPost2010Prop39
140
1.0
102
RTVSPost2010PropOp39
 70
     0
102
RTVSPost2010Prop40
 90
        0
102
RTVSPost2010PropOp40
 70
     0
102
RTVSPost2010Prop41ColorIndex
 90
       18
102
RTVSPost2010Prop41ColorRGB
 90
        0
102
RTVSPost2010PropOp41
 70
     0
102
RTVSPost2010Prop42
 90
       50
102
RTVSPost2010PropOp42
 70
     0
102
RTVSPost2010Prop43
 90
        3
102
RTVSPost2010PropOp43
 70
     0
102
RTVSPost2010Prop44ColorIndex
 90
        5
102
RTVSPost2010Prop44ColorRGB
 90
      255
102
RTVSPost2010PropOp44
 70
     0
102
RTVSPost2010Prop45
280
     0
102
RTVSPost2010PropOp45
 70
     1
102
RTVSPost2010Prop46
 90
       50
102
RTVSPost2010PropOp46
 70
     0
102
RTVSPost2010Prop47
 90
       50
102
RTVSPost2010PropOp47
 70
     0
102
RTVSPost2010Prop48
 90
       50
102
RTVSPost2010PropOp48
 70
     0
102
RTVSPost2010Prop49
280
     0
102
RTVSPost2010PropOp49
 70
     1
102
RTVSPost2010Prop50
 90
       50
102
RTVSPost2010PropOp50
 70
     0
102
RTVSPost2010Prop51ColorIndex
 90
      256
102
RTVSPost2010Prop51ColorRGB
 90
-16777216
102
RTVSPost2010PropOp51
 70
     0
102
RTVSPost2010Prop52
140
1.0
102
RTVSPost2010PropOp52
 70
     0
102
RTVSPost2010Prop53
 90
        2
102
RTVSPost2010PropOp53
 70
     0
102
RTVSPost2010Prop54
  1
strokes_ogs.tif
102
RTVSPost2010PropOp54
 70
     0
102
RTVSPost2010Prop55
280
     0
102
RTVSPost2010PropOp55
 70
     1
102
RTVSPost2010Prop56
140
1.0
102
RTVSPost2010PropOp56
 70
     0
102
RTVSPost2010Prop57
140
1.0
102
RTVSPost2010PropOp57
 70
     0
102
RTVSPropertyOp0
 70
     0
102
RTVSPropertyOp1
 70
     0
102
RTVSPropertyOp2
 70
     0
102
RTVSPropertyOp3
 70
     0
102
RTVSPropertyOp4
 70
     0
102
RTVSPropertyOp5
 70
     0
102
RTVSPropertyOp6
 70
     0
102
RTVSPropertyOp7
 70
     0
102
RTVSPropertyOp8
 70
     0
102
RTVSPropertyOp9
 70
     0
102
RTVSPropertyOp10
 70
     0
102
RTVSPropertyOp11
 70
     0
102
RTVSPropertyOp12
 70
     0
102
RTVSPropertyOp13
 70
     0
102
RTVSPropertyOp14
 70
     2
102
RTVSPropertyOp15
 70
     0
102
RTVSPropertyOp16
 70
     0
102
RTVSPropertyOp17
 70
     0
102
RTVSPropertyOp18
 70
     0
102
RTVSPropertyOp19
 70
     0
102
RTVSPropertyOp20
 70
     0
102
RTVSPropertyOp21
 70
     0
102
RTVSPropertyOp22
 70
     0
102
RTVSPropertyOp23
 70
     0
102
RTVSPropertyOp24
 70
     0
102
RTVSPropertyOp25
 70
     0
102
RTVSPropertyOp26
 70
     0
102
RTVSPropertyOp27
 70
     0
102
RTVSPropertyOp28
 70
     1
102
RTVSPropertyOp29
 70
     1
102
RTVSPropertyOp30
 70
     1
102
RTVSPropertyOp31
 70
     1
102
RTVSPropertyOp32
 70
     1
102
RTVSPropertyOp33
 70
     1
102
RTVSPropertyOp34
 70
     1
102
RTVSPropertyOp35
 70
     1
102
RTVSPropertyOp36
 70
     1
102
RTVSPropertyOp37
 70
     0
102
RTVSPropertyOp38
 70
     0
102
RTVSPropertyOp39
 70
     0
102
RTVSPropertyOp40
 70
     0
102
RTVSPropertyOp41
 70
     0
102
RTVSPropertyOp42
 70
     0
102
RTVSPropertyOp43
 70
     0
102
RTVSPropertyOp44
 70
     0
102
RTVSPropertyOp45
 70
     1
102
RTVSPropertyOp46
 70
     0
102
RTVSPropertyOp47
 70
     0
102
RTVSPropertyOp48
 70
     0
102
RTVSPropertyOp49
 70
     1
102
RTVSPropertyOp50
 70
     0
102
RTVSPropertyOp51
 70
     0
102
RTVSPropertyOp52
 70
     0
102
RTVSPropertyOp53
 70
     0
102
RTVSPropertyOp54
 70
     0
102
RTVSPropertyOp55
 70
     1
102
RTVSPropertyOp56
 70
     0
102
RTVSPropertyOp57
 70
     0
102
RTVSPropertyOp58
 70
     0
102
RTVSPropertyOp59
 70
     0
102
RTVSPropertyOp60
 70
     0
102
RTVSPropertyOp61
 70
     0
102
RTVSPropertyOp62
 70
     0
  0
XRECORD
  5
45D
102
{ACAD_REACTORS
330
45C
102
}
330
45C
100
AcDbXrecord
280
     1
102
RTVSPost2010Prop28
280
     0
102
RTVSPost2010PropOp28
 70
     1
102
RTVSPost2010Prop29
280
     1
102
RTVSPost2010PropOp29
 70
     1
102
RTVSPost2010Prop30
280
     1
102
RTVSPost2010PropOp30
 70
     1
102
RTVSPost2010Prop31
280
     0
102
RTVSPost2010PropOp31
 70
     1
102
RTVSPost2010Prop32
280
     0
102
RTVSPost2010PropOp32
 70
     1
102
RTVSPost2010Prop33
280
     0
102
RTVSPost2010PropOp33
 70
     1
102
RTVSPost2010Prop34
280
     0
102
RTVSPost2010PropOp34
 70
     1
102
RTVSPost2010Prop35
280
     0
102
RTVSPost2010PropOp35
 70
     1
102
RTVSPost2010Prop36
280
     0
102
RTVSPost2010PropOp36
 70
     1
102
RTVSPost2010Prop37
 90
       50
102
RTVSPost2010PropOp37
 70
     1
102
RTVSPost2010Prop38
140
0.0
102
RTVSPost2010PropOp38
 70
     1
102
RTVSPost2010Prop39
140
1.0
102
RTVSPost2010PropOp39
 70
     1
102
RTVSPost2010Prop40
 90
        0
102
RTVSPost2010PropOp40
 70
     1
102
RTVSPost2010Prop41ColorIndex
 90
       18
102
RTVSPost2010Prop41ColorRGB
 90
        0
102
RTVSPost2010PropOp41
 70
     1
102
RTVSPost2010Prop42
 90
       50
102
RTVSPost2010PropOp42
 70
     1
102
RTVSPost2010Prop43
 90
        3
102
RTVSPost2010PropOp43
 70
     1
102
RTVSPost2010Prop44ColorIndex
 90
        5
102
RTVSPost2010Prop44ColorRGB
 90
      255
102
RTVSPost2010PropOp44
 70
     1
102
RTVSPost2010Prop45
280
     0
102
RTVSPost2010PropOp45
 70
     1
102
RTVSPost2010Prop46
 90
       50
102
RTVSPost2010PropOp46
 70
     1
102
RTVSPost2010Prop47
 90
       50
102
RTVSPost2010PropOp47
 70
     1
102
RTVSPost2010Prop48
 90
       50
102
RTVSPost2010PropOp48
 70
     1
102
RTVSPost2010Prop49
280
     0
102
RTVSPost2010PropOp49
 70
     1
102
RTVSPost2010Prop50
 90
       50
102
RTVSPost2010PropOp50
 70
     1
102
RTVSPost2010Prop51ColorIndex
 90
      256
102
RTVSPost2010Prop51ColorRGB
 90
-16777216
102
RTVSPost2010PropOp51
 70
     0
102
RTVSPost2010Prop52
140
1.0
102
RTVSPost2010PropOp52
 70
     0
102
RTVSPost2010Prop53
 90
        2
102
RTVSPost2010PropOp53
 70
     1
102
RTVSPost2010Prop54
  1
strokes_ogs.tif
102
RTVSPost2010PropOp54
 70
     1
102
RTVSPost2010Prop55
280
     0
102
RTVSPost2010PropOp55
 70
     1
102
RTVSPost2010Prop56
140
1.0
102
RTVSPost2010PropOp56
 70
     1
102
RTVSPost2010Prop57
140
1.0
102
RTVSPost2010PropOp57
 70
     1
102
RTVSPropertyOp0
 70
     1
102
RTVSPropertyOp1
 70
     1
102
RTVSPropertyOp2
 70
     1
102
RTVSPropertyOp3
 70
     1
102
RTVSPropertyOp4
 70
     1
102
RTVSPropertyOp5
 70
     1
102
RTVSPropertyOp6
 70
     1
102
RTVSPropertyOp7
 70
     1
102
RTVSPropertyOp8
 70
     1
102
RTVSPropertyOp9
 70
     1
102
RTVSPropertyOp10
 70
     1
102
RTVSPropertyOp11
 70
     1
102
RTVSPropertyOp12
 70
     1
102
RTVSPropertyOp13
 70
     1
102
RTVSPropertyOp14
 70
     1
102
RTVSPropertyOp15
 70
     1
102
RTVSPropertyOp16
 70
     1
102
RTVSPropertyOp17
 70
     1
102
RTVSPropertyOp18
 70
     1
102
RTVSPropertyOp19
 70
     1
102
RTVSPropertyOp20
 70
     1
102
RTVSPropertyOp21
 70
     1
102
RTVSPropertyOp22
 70
     1
102
RTVSPropertyOp23
 70
     1
102
RTVSPropertyOp24
 70
     1
102
RTVSPropertyOp25
 70
     1
102
RTVSPropertyOp26
 70
     1
102
RTVSPropertyOp27
 70
     1
102
RTVSPropertyOp28
 70
     1
102
RTVSPropertyOp29
 70
     1
102
RTVSPropertyOp30
 70
     1
102
RTVSPropertyOp31
 70
     1
102
RTVSPropertyOp32
 70
     1
102
RTVSPropertyOp33
 70
     1
102
RTVSPropertyOp34
 70
     1
102
RTVSPropertyOp35
 70
     1
102
RTVSPropertyOp36
 70
     1
102
RTVSPropertyOp37
 70
     1
102
RTVSPropertyOp38
 70
     1
102
RTVSPropertyOp39
 70
     1
102
RTVSPropertyOp40
 70
     1
102
RTVSPropertyOp41
 70
     1
102
RTVSPropertyOp42
 70
     1
102
RTVSPropertyOp43
 70
     1
102
RTVSPropertyOp44
 70
     1
102
RTVSPropertyOp45
 70
     1
102
RTVSPropertyOp46
 70
     1
102
RTVSPropertyOp47
 70
     1
102
RTVSPropertyOp48
 70
     1
102
RTVSPropertyOp49
 70
     1
102
RTVSPropertyOp50
 70
     1
102
RTVSPropertyOp51
 70
     0
102
RTVSPropertyOp52
 70
     0
102
RTVSPropertyOp53
 70
     1
102
RTVSPropertyOp54
 70
     1
102
RTVSPropertyOp55
 70
     1
102
RTVSPropertyOp56
 70
     1
102
RTVSPropertyOp57
 70
     1
102
RTVSPropertyOp58
 70
     1
102
RTVSPropertyOp59
 70
     1
102
RTVSPropertyOp60
 70
     1
102
RTVSPropertyOp61
 70
     1
102
RTVSPropertyOp62
 70
     1
  0
XRECORD
  5
473
102
{ACAD_REACTORS
330
472
102
}
330
472
100
AcDbXrecord
280
     1
102
RTVSPost2010Prop28
280
     0
102
RTVSPost2010PropOp28
 70
     1
102
RTVSPost2010Prop29
280
     1
102
RTVSPost2010PropOp29
 70
     1
102
RTVSPost2010Prop30
280
     1
102
RTVSPost2010PropOp30
 70
     1
102
RTVSPost2010Prop31
280
     0
102
RTVSPost2010PropOp31
 70
     1
102
RTVSPost2010Prop32
280
     0
102
RTVSPost2010PropOp32
 70
     1
102
RTVSPost2010Prop33
280
     0
102
RTVSPost2010PropOp33
 70
     1
102
RTVSPost2010Prop34
280
     0
102
RTVSPost2010PropOp34
 70
     1
102
RTVSPost2010Prop35
280
     0
102
RTVSPost2010PropOp35
 70
     1
102
RTVSPost2010Prop36
280
     0
102
RTVSPost2010PropOp36
 70
     1
102
RTVSPost2010Prop37
 90
       50
102
RTVSPost2010PropOp37
 70
     1
102
RTVSPost2010Prop38
140
0.0
102
RTVSPost2010PropOp38
 70
     1
102
RTVSPost2010Prop39
140
1.0
102
RTVSPost2010PropOp39
 70
     1
102
RTVSPost2010Prop40
 90
        0
102
RTVSPost2010PropOp40
 70
     1
102
RTVSPost2010Prop41ColorIndex
 90
       18
102
RTVSPost2010Prop41ColorRGB
 90
        0
102
RTVSPost2010PropOp41
 70
     1
102
RTVSPost2010Prop42
 90
       50
102
RTVSPost2010PropOp42
 70
     1
102
RTVSPost2010Prop43
 90
        3
102
RTVSPost2010PropOp43
 70
     1
102
RTVSPost2010Prop44ColorIndex
 90
        5
102
RTVSPost2010Prop44ColorRGB
 90
      255
102
RTVSPost2010PropOp44
 70
     1
102
RTVSPost2010Prop45
280
     0
102
RTVSPost2010PropOp45
 70
     1
102
RTVSPost2010Prop46
 90
       50
102
RTVSPost2010PropOp46
 70
     1
102
RTVSPost2010Prop47
 90
       50
102
RTVSPost2010PropOp47
 70
     1
102
RTVSPost2010Prop48
 90
       50
102
RTVSPost2010PropOp48
 70
     1
102
RTVSPost2010Prop49
280
     0
102
RTVSPost2010PropOp49
 70
     1
102
RTVSPost2010Prop50
 90
       50
102
RTVSPost2010PropOp50
 70
     1
102
RTVSPost2010Prop51ColorIndex
 90
      256
102
RTVSPost2010Prop51ColorRGB
 90
-16777216
102
RTVSPost2010PropOp51
 70
     0
102
RTVSPost2010Prop52
140
1.0
102
RTVSPost2010PropOp52
 70
     0
102
RTVSPost2010Prop53
 90
        2
102
RTVSPost2010PropOp53
 70
     1
102
RTVSPost2010Prop54
  1
strokes_ogs.tif
102
RTVSPost2010PropOp54
 70
     1
102
RTVSPost2010Prop55
280
     0
102
RTVSPost2010PropOp55
 70
     1
102
RTVSPost2010Prop56
140
1.0
102
RTVSPost2010PropOp56
 70
     1
102
RTVSPost2010Prop57
140
1.0
102
RTVSPost2010PropOp57
 70
     1
102
RTVSPropertyOp0
 70
     1
102
RTVSPropertyOp1
 70
     1
102
RTVSPropertyOp2
 70
     1
102
RTVSPropertyOp3
 70
     1
102
RTVSPropertyOp4
 70
     1
102
RTVSPropertyOp5
 70
     1
102
RTVSPropertyOp6
 70
     1
102
RTVSPropertyOp7
 70
     1
102
RTVSPropertyOp8
 70
     1
102
RTVSPropertyOp9
 70
     1
102
RTVSPropertyOp10
 70
     1
102
RTVSPropertyOp11
 70
     1
102
RTVSPropertyOp12
 70
     1
102
RTVSPropertyOp13
 70
     1
102
RTVSPropertyOp14
 70
     1
102
RTVSPropertyOp15
 70
     1
102
RTVSPropertyOp16
 70
     1
102
RTVSPropertyOp17
 70
     1
102
RTVSPropertyOp18
 70
     1
102
RTVSPropertyOp19
 70
     1
102
RTVSPropertyOp20
 70
     1
102
RTVSPropertyOp21
 70
     1
102
RTVSPropertyOp22
 70
     1
102
RTVSPropertyOp23
 70
     1
102
RTVSPropertyOp24
 70
     1
102
RTVSPropertyOp25
 70
     1
102
RTVSPropertyOp26
 70
     1
102
RTVSPropertyOp27
 70
     1
102
RTVSPropertyOp28
 70
     1
102
RTVSPropertyOp29
 70
     1
102
RTVSPropertyOp30
 70
     1
102
RTVSPropertyOp31
 70
     1
102
RTVSPropertyOp32
 70
     1
102
RTVSPropertyOp33
 70
     1
102
RTVSPropertyOp34
 70
     1
102
RTVSPropertyOp35
 70
     1
102
RTVSPropertyOp36
 70
     1
102
RTVSPropertyOp37
 70
     1
102
RTVSPropertyOp38
 70
     1
102
RTVSPropertyOp39
 70
     1
102
RTVSPropertyOp40
 70
     1
102
RTVSPropertyOp41
 70
     1
102
RTVSPropertyOp42
 70
     1
102
RTVSPropertyOp43
 70
     1
102
RTVSPropertyOp44
 70
     1
102
RTVSPropertyOp45
 70
     1
102
RTVSPropertyOp46
 70
     1
102
RTVSPropertyOp47
 70
     1
102
RTVSPropertyOp48
 70
     1
102
RTVSPropertyOp49
 70
     1
102
RTVSPropertyOp50
 70
     1
102
RTVSPropertyOp51
 70
     0
102
RTVSPropertyOp52
 70
     0
102
RTVSPropertyOp53
 70
     1
102
RTVSPropertyOp54
 70
     1
102
RTVSPropertyOp55
 70
     1
102
RTVSPropertyOp56
 70
     1
102
RTVSPropertyOp57
 70
     1
102
RTVSPropertyOp58
 70
     1
102
RTVSPropertyOp59
 70
     1
102
RTVSPropertyOp60
 70
     1
102
RTVSPropertyOp61
 70
     1
102
RTVSPropertyOp62
 70
     1
  0
XRECORD
  5
471
102
{ACAD_REACTORS
330
470
102
}
330
470
100
AcDbXrecord
280
     1
102
RTVSPost2010Prop28
280
     0
102
RTVSPost2010PropOp28
 70
     1
102
RTVSPost2010Prop29
280
     1
102
RTVSPost2010PropOp29
 70
     1
102
RTVSPost2010Prop30
280
     1
102
RTVSPost2010PropOp30
 70
     1
102
RTVSPost2010Prop31
280
     0
102
RTVSPost2010PropOp31
 70
     1
102
RTVSPost2010Prop32
280
     0
102
RTVSPost2010PropOp32
 70
     1
102
RTVSPost2010Prop33
280
     0
102
RTVSPost2010PropOp33
 70
     1
102
RTVSPost2010Prop34
280
     0
102
RTVSPost2010PropOp34
 70
     1
102
RTVSPost2010Prop35
280
     0
102
RTVSPost2010PropOp35
 70
     1
102
RTVSPost2010Prop36
280
     0
102
RTVSPost2010PropOp36
 70
     1
102
RTVSPost2010Prop37
 90
       50
102
RTVSPost2010PropOp37
 70
     1
102
RTVSPost2010Prop38
140
0.0
102
RTVSPost2010PropOp38
 70
     1
102
RTVSPost2010Prop39
140
1.0
102
RTVSPost2010PropOp39
 70
     1
102
RTVSPost2010Prop40
 90
        0
102
RTVSPost2010PropOp40
 70
     1
102
RTVSPost2010Prop41ColorIndex
 90
       18
102
RTVSPost2010Prop41ColorRGB
 90
        0
102
RTVSPost2010PropOp41
 70
     1
102
RTVSPost2010Prop42
 90
       50
102
RTVSPost2010PropOp42
 70
     1
102
RTVSPost2010Prop43
 90
        3
102
RTVSPost2010PropOp43
 70
     1
102
RTVSPost2010Prop44ColorIndex
 90
        5
102
RTVSPost2010Prop44ColorRGB
 90
      255
102
RTVSPost2010PropOp44
 70
     1
102
RTVSPost2010Prop45
280
     0
102
RTVSPost2010PropOp45
 70
     1
102
RTVSPost2010Prop46
 90
       50
102
RTVSPost2010PropOp46
 70
     1
102
RTVSPost2010Prop47
 90
       50
102
RTVSPost2010PropOp47
 70
     1
102
RTVSPost2010Prop48
 90
       50
102
RTVSPost2010PropOp48
 70
     1
102
RTVSPost2010Prop49
280
     0
102
RTVSPost2010PropOp49
 70
     1
102
RTVSPost2010Prop50
 90
       50
102
RTVSPost2010PropOp50
 70
     1
102
RTVSPost2010Prop51ColorIndex
 90
      256
102
RTVSPost2010Prop51ColorRGB
 90
-16777216
102
RTVSPost2010PropOp51
 70
     0
102
RTVSPost2010Prop52
140
1.0
102
RTVSPost2010PropOp52
 70
     0
102
RTVSPost2010Prop53
 90
        2
102
RTVSPost2010PropOp53
 70
     1
102
RTVSPost2010Prop54
  1
strokes_ogs.tif
102
RTVSPost2010PropOp54
 70
     1
102
RTVSPost2010Prop55
280
     0
102
RTVSPost2010PropOp55
 70
     1
102
RTVSPost2010Prop56
140
1.0
102
RTVSPost2010PropOp56
 70
     1
102
RTVSPost2010Prop57
140
1.0
102
RTVSPost2010PropOp57
 70
     1
102
RTVSPropertyOp0
 70
     1
102
RTVSPropertyOp1
 70
     1
102
RTVSPropertyOp2
 70
     1
102
RTVSPropertyOp3
 70
     1
102
RTVSPropertyOp4
 70
     1
102
RTVSPropertyOp5
 70
     1
102
RTVSPropertyOp6
 70
     1
102
RTVSPropertyOp7
 70
     1
102
RTVSPropertyOp8
 70
     1
102
RTVSPropertyOp9
 70
     1
102
RTVSPropertyOp10
 70
     1
102
RTVSPropertyOp11
 70
     1
102
RTVSPropertyOp12
 70
     1
102
RTVSPropertyOp13
 70
     1
102
RTVSPropertyOp14
 70
     1
102
RTVSPropertyOp15
 70
     1
102
RTVSPropertyOp16
 70
     1
102
RTVSPropertyOp17
 70
     1
102
RTVSPropertyOp18
 70
     1
102
RTVSPropertyOp19
 70
     1
102
RTVSPropertyOp20
 70
     1
102
RTVSPropertyOp21
 70
     1
102
RTVSPropertyOp22
 70
     1
102
RTVSPropertyOp23
 70
     1
102
RTVSPropertyOp24
 70
     1
102
RTVSPropertyOp25
 70
     1
102
RTVSPropertyOp26
 70
     1
102
RTVSPropertyOp27
 70
     1
102
RTVSPropertyOp28
 70
     1
102
RTVSPropertyOp29
 70
     1
102
RTVSPropertyOp30
 70
     1
102
RTVSPropertyOp31
 70
     1
102
RTVSPropertyOp32
 70
     1
102
RTVSPropertyOp33
 70
     1
102
RTVSPropertyOp34
 70
     1
102
RTVSPropertyOp35
 70
     1
102
RTVSPropertyOp36
 70
     1
102
RTVSPropertyOp37
 70
     1
102
RTVSPropertyOp38
 70
     1
102
RTVSPropertyOp39
 70
     1
102
RTVSPropertyOp40
 70
     1
102
RTVSPropertyOp41
 70
     1
102
RTVSPropertyOp42
 70
     1
102
RTVSPropertyOp43
 70
     1
102
RTVSPropertyOp44
 70
     1
102
RTVSPropertyOp45
 70
     1
102
RTVSPropertyOp46
 70
     1
102
RTVSPropertyOp47
 70
     1
102
RTVSPropertyOp48
 70
     1
102
RTVSPropertyOp49
 70
     1
102
RTVSPropertyOp50
 70
     1
102
RTVSPropertyOp51
 70
     0
102
RTVSPropertyOp52
 70
     0
102
RTVSPropertyOp53
 70
     1
102
RTVSPropertyOp54
 70
     1
102
RTVSPropertyOp55
 70
     1
102
RTVSPropertyOp56
 70
     1
102
RTVSPropertyOp57
 70
     1
102
RTVSPropertyOp58
 70
     1
102
RTVSPropertyOp59
 70
     1
102
RTVSPropertyOp60
 70
     1
102
RTVSPropertyOp61
 70
     1
102
RTVSPropertyOp62
 70
     1
  0
XRECORD
  5
46B
102
{ACAD_REACTORS
330
46A
102
}
330
46A
100
AcDbXrecord
280
     1
102
RTVSPost2010Prop28
280
     0
102
RTVSPost2010PropOp28
 70
     1
102
RTVSPost2010Prop29
280
     1
102
RTVSPost2010PropOp29
 70
     1
102
RTVSPost2010Prop30
280
     1
102
RTVSPost2010PropOp30
 70
     1
102
RTVSPost2010Prop31
280
     0
102
RTVSPost2010PropOp31
 70
     1
102
RTVSPost2010Prop32
280
     0
102
RTVSPost2010PropOp32
 70
     1
102
RTVSPost2010Prop33
280
     0
102
RTVSPost2010PropOp33
 70
     1
102
RTVSPost2010Prop34
280
     0
102
RTVSPost2010PropOp34
 70
     1
102
RTVSPost2010Prop35
280
     0
102
RTVSPost2010PropOp35
 70
     1
102
RTVSPost2010Prop36
280
     0
102
RTVSPost2010PropOp36
 70
     1
102
RTVSPost2010Prop37
 90
       50
102
RTVSPost2010PropOp37
 70
     1
102
RTVSPost2010Prop38
140
0.0
102
RTVSPost2010PropOp38
 70
     1
102
RTVSPost2010Prop39
140
1.0
102
RTVSPost2010PropOp39
 70
     1
102
RTVSPost2010Prop40
 90
        0
102
RTVSPost2010PropOp40
 70
     1
102
RTVSPost2010Prop41ColorIndex
 90
       18
102
RTVSPost2010Prop41ColorRGB
 90
        0
102
RTVSPost2010PropOp41
 70
     1
102
RTVSPost2010Prop42
 90
       50
102
RTVSPost2010PropOp42
 70
     1
102
RTVSPost2010Prop43
 90
        3
102
RTVSPost2010PropOp43
 70
     1
102
RTVSPost2010Prop44ColorIndex
 90
        5
102
RTVSPost2010Prop44ColorRGB
 90
      255
102
RTVSPost2010PropOp44
 70
     1
102
RTVSPost2010Prop45
280
     0
102
RTVSPost2010PropOp45
 70
     1
102
RTVSPost2010Prop46
 90
       50
102
RTVSPost2010PropOp46
 70
     1
102
RTVSPost2010Prop47
 90
       50
102
RTVSPost2010PropOp47
 70
     1
102
RTVSPost2010Prop48
 90
       50
102
RTVSPost2010PropOp48
 70
     1
102
RTVSPost2010Prop49
280
     0
102
RTVSPost2010PropOp49
 70
     1
102
RTVSPost2010Prop50
 90
       50
102
RTVSPost2010PropOp50
 70
     1
102
RTVSPost2010Prop51ColorIndex
 90
      256
102
RTVSPost2010Prop51ColorRGB
 90
-16777216
102
RTVSPost2010PropOp51
 70
     0
102
RTVSPost2010Prop52
140
1.0
102
RTVSPost2010PropOp52
 70
     0
102
RTVSPost2010Prop53
 90
        2
102
RTVSPost2010PropOp53
 70
     1
102
RTVSPost2010Prop54
  1
strokes_ogs.tif
102
RTVSPost2010PropOp54
 70
     1
102
RTVSPost2010Prop55
280
     0
102
RTVSPost2010PropOp55
 70
     1
102
RTVSPost2010Prop56
140
1.0
102
RTVSPost2010PropOp56
 70
     1
102
RTVSPost2010Prop57
140
1.0
102
RTVSPost2010PropOp57
 70
     1
102
RTVSPropertyOp0
 70
     1
102
RTVSPropertyOp1
 70
     1
102
RTVSPropertyOp2
 70
     1
102
RTVSPropertyOp3
 70
     1
102
RTVSPropertyOp4
 70
     1
102
RTVSPropertyOp5
 70
     1
102
RTVSPropertyOp6
 70
     1
102
RTVSPropertyOp7
 70
     1
102
RTVSPropertyOp8
 70
     1
102
RTVSPropertyOp9
 70
     1
102
RTVSPropertyOp10
 70
     1
102
RTVSPropertyOp11
 70
     1
102
RTVSPropertyOp12
 70
     1
102
RTVSPropertyOp13
 70
     1
102
RTVSPropertyOp14
 70
     1
102
RTVSPropertyOp15
 70
     1
102
RTVSPropertyOp16
 70
     1
102
RTVSPropertyOp17
 70
     1
102
RTVSPropertyOp18
 70
     1
102
RTVSPropertyOp19
 70
     1
102
RTVSPropertyOp20
 70
     1
102
RTVSPropertyOp21
 70
     1
102
RTVSPropertyOp22
 70
     1
102
RTVSPropertyOp23
 70
     1
102
RTVSPropertyOp24
 70
     1
102
RTVSPropertyOp25
 70
     1
102
RTVSPropertyOp26
 70
     1
102
RTVSPropertyOp27
 70
     1
102
RTVSPropertyOp28
 70
     1
102
RTVSPropertyOp29
 70
     1
102
RTVSPropertyOp30
 70
     1
102
RTVSPropertyOp31
 70
     1
102
RTVSPropertyOp32
 70
     1
102
RTVSPropertyOp33
 70
     1
102
RTVSPropertyOp34
 70
     1
102
RTVSPropertyOp35
 70
     1
102
RTVSPropertyOp36
 70
     1
102
RTVSPropertyOp37
 70
     1
102
RTVSPropertyOp38
 70
     1
102
RTVSPropertyOp39
 70
     1
102
RTVSPropertyOp40
 70
     1
102
RTVSPropertyOp41
 70
     1
102
RTVSPropertyOp42
 70
     1
102
RTVSPropertyOp43
 70
     1
102
RTVSPropertyOp44
 70
     1
102
RTVSPropertyOp45
 70
     1
102
RTVSPropertyOp46
 70
     1
102
RTVSPropertyOp47
 70
     1
102
RTVSPropertyOp48
 70
     1
102
RTVSPropertyOp49
 70
     1
102
RTVSPropertyOp50
 70
     1
102
RTVSPropertyOp51
 70
     0
102
RTVSPropertyOp52
 70
     0
102
RTVSPropertyOp53
 70
     1
102
RTVSPropertyOp54
 70
     1
102
RTVSPropertyOp55
 70
     1
102
RTVSPropertyOp56
 70
     1
102
RTVSPropertyOp57
 70
     1
102
RTVSPropertyOp58
 70
     1
102
RTVSPropertyOp59
 70
     1
102
RTVSPropertyOp60
 70
     1
102
RTVSPropertyOp61
 70
     1
102
RTVSPropertyOp62
 70
     1
  0
XRECORD
  5
46D
102
{ACAD_REACTORS
330
46C
102
}
330
46C
100
AcDbXrecord
280
     1
102
RTVSPost2010Prop28
280
     0
102
RTVSPost2010PropOp28
 70
     1
102
RTVSPost2010Prop29
280
     1
102
RTVSPost2010PropOp29
 70
     1
102
RTVSPost2010Prop30
280
     1
102
RTVSPost2010PropOp30
 70
     1
102
RTVSPost2010Prop31
280
     0
102
RTVSPost2010PropOp31
 70
     1
102
RTVSPost2010Prop32
280
     0
102
RTVSPost2010PropOp32
 70
     1
102
RTVSPost2010Prop33
280
     0
102
RTVSPost2010PropOp33
 70
     1
102
RTVSPost2010Prop34
280
     0
102
RTVSPost2010PropOp34
 70
     1
102
RTVSPost2010Prop35
280
     0
102
RTVSPost2010PropOp35
 70
     1
102
RTVSPost2010Prop36
280
     0
102
RTVSPost2010PropOp36
 70
     1
102
RTVSPost2010Prop37
 90
       50
102
RTVSPost2010PropOp37
 70
     1
102
RTVSPost2010Prop38
140
0.0
102
RTVSPost2010PropOp38
 70
     1
102
RTVSPost2010Prop39
140
1.0
102
RTVSPost2010PropOp39
 70
     1
102
RTVSPost2010Prop40
 90
        0
102
RTVSPost2010PropOp40
 70
     1
102
RTVSPost2010Prop41ColorIndex
 90
       18
102
RTVSPost2010Prop41ColorRGB
 90
        0
102
RTVSPost2010PropOp41
 70
     1
102
RTVSPost2010Prop42
 90
       50
102
RTVSPost2010PropOp42
 70
     1
102
RTVSPost2010Prop43
 90
        3
102
RTVSPost2010PropOp43
 70
     1
102
RTVSPost2010Prop44ColorIndex
 90
        5
102
RTVSPost2010Prop44ColorRGB
 90
      255
102
RTVSPost2010PropOp44
 70
     1
102
RTVSPost2010Prop45
280
     0
102
RTVSPost2010PropOp45
 70
     1
102
RTVSPost2010Prop46
 90
       50
102
RTVSPost2010PropOp46
 70
     1
102
RTVSPost2010Prop47
 90
       50
102
RTVSPost2010PropOp47
 70
     1
102
RTVSPost2010Prop48
 90
       50
102
RTVSPost2010PropOp48
 70
     1
102
RTVSPost2010Prop49
280
     0
102
RTVSPost2010PropOp49
 70
     1
102
RTVSPost2010Prop50
 90
       50
102
RTVSPost2010PropOp50
 70
     1
102
RTVSPost2010Prop51ColorIndex
 90
      256
102
RTVSPost2010Prop51ColorRGB
 90
-16777216
102
RTVSPost2010PropOp51
 70
     0
102
RTVSPost2010Prop52
140
1.0
102
RTVSPost2010PropOp52
 70
     0
102
RTVSPost2010Prop53
 90
        2
102
RTVSPost2010PropOp53
 70
     1
102
RTVSPost2010Prop54
  1
strokes_ogs.tif
102
RTVSPost2010PropOp54
 70
     1
102
RTVSPost2010Prop55
280
     0
102
RTVSPost2010PropOp55
 70
     1
102
RTVSPost2010Prop56
140
1.0
102
RTVSPost2010PropOp56
 70
     1
102
RTVSPost2010Prop57
140
1.0
102
RTVSPost2010PropOp57
 70
     1
102
RTVSPropertyOp0
 70
     1
102
RTVSPropertyOp1
 70
     1
102
RTVSPropertyOp2
 70
     1
102
RTVSPropertyOp3
 70
     1
102
RTVSPropertyOp4
 70
     1
102
RTVSPropertyOp5
 70
     1
102
RTVSPropertyOp6
 70
     1
102
RTVSPropertyOp7
 70
     1
102
RTVSPropertyOp8
 70
     1
102
RTVSPropertyOp9
 70
     1
102
RTVSPropertyOp10
 70
     1
102
RTVSPropertyOp11
 70
     1
102
RTVSPropertyOp12
 70
     1
102
RTVSPropertyOp13
 70
     1
102
RTVSPropertyOp14
 70
     1
102
RTVSPropertyOp15
 70
     1
102
RTVSPropertyOp16
 70
     1
102
RTVSPropertyOp17
 70
     1
102
RTVSPropertyOp18
 70
     1
102
RTVSPropertyOp19
 70
     1
102
RTVSPropertyOp20
 70
     1
102
RTVSPropertyOp21
 70
     1
102
RTVSPropertyOp22
 70
     1
102
RTVSPropertyOp23
 70
     1
102
RTVSPropertyOp24
 70
     1
102
RTVSPropertyOp25
 70
     1
102
RTVSPropertyOp26
 70
     1
102
RTVSPropertyOp27
 70
     1
102
RTVSPropertyOp28
 70
     1
102
RTVSPropertyOp29
 70
     1
102
RTVSPropertyOp30
 70
     1
102
RTVSPropertyOp31
 70
     1
102
RTVSPropertyOp32
 70
     1
102
RTVSPropertyOp33
 70
     1
102
RTVSPropertyOp34
 70
     1
102
RTVSPropertyOp35
 70
     1
102
RTVSPropertyOp36
 70
     1
102
RTVSPropertyOp37
 70
     1
102
RTVSPropertyOp38
 70
     1
102
RTVSPropertyOp39
 70
     1
102
RTVSPropertyOp40
 70
     1
102
RTVSPropertyOp41
 70
     1
102
RTVSPropertyOp42
 70
     1
102
RTVSPropertyOp43
 70
     1
102
RTVSPropertyOp44
 70
     1
102
RTVSPropertyOp45
 70
     1
102
RTVSPropertyOp46
 70
     1
102
RTVSPropertyOp47
 70
     1
102
RTVSPropertyOp48
 70
     1
102
RTVSPropertyOp49
 70
     1
102
RTVSPropertyOp50
 70
     1
102
RTVSPropertyOp51
 70
     0
102
RTVSPropertyOp52
 70
     0
102
RTVSPropertyOp53
 70
     1
102
RTVSPropertyOp54
 70
     1
102
RTVSPropertyOp55
 70
     1
102
RTVSPropertyOp56
 70
     1
102
RTVSPropertyOp57
 70
     1
102
RTVSPropertyOp58
 70
     1
102
RTVSPropertyOp59
 70
     1
102
RTVSPropertyOp60
 70
     1
102
RTVSPropertyOp61
 70
     1
102
RTVSPropertyOp62
 70
     1
  0
XRECORD
  5
463
102
{ACAD_REACTORS
330
462
102
}
330
462
100
AcDbXrecord
280
     1
102
RTVSPost2010Prop28
280
     0
102
RTVSPost2010PropOp28
 70
     1
102
RTVSPost2010Prop29
280
     1
102
RTVSPost2010PropOp29
 70
     1
102
RTVSPost2010Prop30
280
     1
102
RTVSPost2010PropOp30
 70
     1
102
RTVSPost2010Prop31
280
     0
102
RTVSPost2010PropOp31
 70
     1
102
RTVSPost2010Prop32
280
     0
102
RTVSPost2010PropOp32
 70
     1
102
RTVSPost2010Prop33
280
     0
102
RTVSPost2010PropOp33
 70
     1
102
RTVSPost2010Prop34
280
     0
102
RTVSPost2010PropOp34
 70
     1
102
RTVSPost2010Prop35
280
     0
102
RTVSPost2010PropOp35
 70
     1
102
RTVSPost2010Prop36
280
     0
102
RTVSPost2010PropOp36
 70
     1
102
RTVSPost2010Prop37
 90
       50
102
RTVSPost2010PropOp37
 70
     1
102
RTVSPost2010Prop38
140
0.0
102
RTVSPost2010PropOp38
 70
     1
102
RTVSPost2010Prop39
140
1.0
102
RTVSPost2010PropOp39
 70
     1
102
RTVSPost2010Prop40
 90
        0
102
RTVSPost2010PropOp40
 70
     1
102
RTVSPost2010Prop41ColorIndex
 90
       18
102
RTVSPost2010Prop41ColorRGB
 90
        0
102
RTVSPost2010PropOp41
 70
     1
102
RTVSPost2010Prop42
 90
       50
102
RTVSPost2010PropOp42
 70
     1
102
RTVSPost2010Prop43
 90
        3
102
RTVSPost2010PropOp43
 70
     1
102
RTVSPost2010Prop44ColorIndex
 90
        5
102
RTVSPost2010Prop44ColorRGB
 90
      255
102
RTVSPost2010PropOp44
 70
     1
102
RTVSPost2010Prop45
280
     0
102
RTVSPost2010PropOp45
 70
     1
102
RTVSPost2010Prop46
 90
       50
102
RTVSPost2010PropOp46
 70
     1
102
RTVSPost2010Prop47
 90
       50
102
RTVSPost2010PropOp47
 70
     1
102
RTVSPost2010Prop48
 90
       50
102
RTVSPost2010PropOp48
 70
     1
102
RTVSPost2010Prop49
280
     0
102
RTVSPost2010PropOp49
 70
     1
102
RTVSPost2010Prop50
 90
       50
102
RTVSPost2010PropOp50
 70
     1
102
RTVSPost2010Prop51ColorIndex
 90
      256
102
RTVSPost2010Prop51ColorRGB
 90
-16777216
102
RTVSPost2010PropOp51
 70
     0
102
RTVSPost2010Prop52
140
1.0
102
RTVSPost2010PropOp52
 70
     0
102
RTVSPost2010Prop53
 90
        2
102
RTVSPost2010PropOp53
 70
     1
102
RTVSPost2010Prop54
  1
strokes_ogs.tif
102
RTVSPost2010PropOp54
 70
     1
102
RTVSPost2010Prop55
280
     0
102
RTVSPost2010PropOp55
 70
     1
102
RTVSPost2010Prop56
140
1.0
102
RTVSPost2010PropOp56
 70
     1
102
RTVSPost2010Prop57
140
1.0
102
RTVSPost2010PropOp57
 70
     1
102
RTVSPropertyOp0
 70
     1
102
RTVSPropertyOp1
 70
     1
102
RTVSPropertyOp2
 70
     1
102
RTVSPropertyOp3
 70
     1
102
RTVSPropertyOp4
 70
     1
102
RTVSPropertyOp5
 70
     1
102
RTVSPropertyOp6
 70
     1
102
RTVSPropertyOp7
 70
     1
102
RTVSPropertyOp8
 70
     1
102
RTVSPropertyOp9
 70
     1
102
RTVSPropertyOp10
 70
     1
102
RTVSPropertyOp11
 70
     1
102
RTVSPropertyOp12
 70
     1
102
RTVSPropertyOp13
 70
     1
102
RTVSPropertyOp14
 70
     1
102
RTVSPropertyOp15
 70
     1
102
RTVSPropertyOp16
 70
     1
102
RTVSPropertyOp17
 70
     1
102
RTVSPropertyOp18
 70
     1
102
RTVSPropertyOp19
 70
     1
102
RTVSPropertyOp20
 70
     1
102
RTVSPropertyOp21
 70
     1
102
RTVSPropertyOp22
 70
     1
102
RTVSPropertyOp23
 70
     1
102
RTVSPropertyOp24
 70
     1
102
RTVSPropertyOp25
 70
     1
102
RTVSPropertyOp26
 70
     1
102
RTVSPropertyOp27
 70
     1
102
RTVSPropertyOp28
 70
     1
102
RTVSPropertyOp29
 70
     1
102
RTVSPropertyOp30
 70
     1
102
RTVSPropertyOp31
 70
     1
102
RTVSPropertyOp32
 70
     1
102
RTVSPropertyOp33
 70
     1
102
RTVSPropertyOp34
 70
     1
102
RTVSPropertyOp35
 70
     1
102
RTVSPropertyOp36
 70
     1
102
RTVSPropertyOp37
 70
     1
102
RTVSPropertyOp38
 70
     1
102
RTVSPropertyOp39
 70
     1
102
RTVSPropertyOp40
 70
     1
102
RTVSPropertyOp41
 70
     1
102
RTVSPropertyOp42
 70
     1
102
RTVSPropertyOp43
 70
     1
102
RTVSPropertyOp44
 70
     1
102
RTVSPropertyOp45
 70
     1
102
RTVSPropertyOp46
 70
     1
102
RTVSPropertyOp47
 70
     1
102
RTVSPropertyOp48
 70
     1
102
RTVSPropertyOp49
 70
     1
102
RTVSPropertyOp50
 70
     1
102
RTVSPropertyOp51
 70
     0
102
RTVSPropertyOp52
 70
     0
102
RTVSPropertyOp53
 70
     1
102
RTVSPropertyOp54
 70
     1
102
RTVSPropertyOp55
 70
     1
102
RTVSPropertyOp56
 70
     1
102
RTVSPropertyOp57
 70
     1
102
RTVSPropertyOp58
 70
     1
102
RTVSPropertyOp59
 70
     1
102
RTVSPropertyOp60
 70
     1
102
RTVSPropertyOp61
 70
     1
102
RTVSPropertyOp62
 70
     1
  0
XRECORD
  5
457
102
{ACAD_REACTORS
330
456
102
}
330
456
100
AcDbXrecord
280
     1
102
RTVSPost2010Prop28
280
     0
102
RTVSPost2010PropOp28
 70
     1
102
RTVSPost2010Prop29
280
     1
102
RTVSPost2010PropOp29
 70
     1
102
RTVSPost2010Prop30
280
     1
102
RTVSPost2010PropOp30
 70
     1
102
RTVSPost2010Prop31
280
     0
102
RTVSPost2010PropOp31
 70
     1
102
RTVSPost2010Prop32
280
     0
102
RTVSPost2010PropOp32
 70
     1
102
RTVSPost2010Prop33
280
     0
102
RTVSPost2010PropOp33
 70
     1
102
RTVSPost2010Prop34
280
     0
102
RTVSPost2010PropOp34
 70
     1
102
RTVSPost2010Prop35
280
     0
102
RTVSPost2010PropOp35
 70
     1
102
RTVSPost2010Prop36
280
     0
102
RTVSPost2010PropOp36
 70
     1
102
RTVSPost2010Prop37
 90
       50
102
RTVSPost2010PropOp37
 70
     1
102
RTVSPost2010Prop38
140
0.0
102
RTVSPost2010PropOp38
 70
     1
102
RTVSPost2010Prop39
140
1.0
102
RTVSPost2010PropOp39
 70
     1
102
RTVSPost2010Prop40
 90
        0
102
RTVSPost2010PropOp40
 70
     1
102
RTVSPost2010Prop41ColorIndex
 90
       18
102
RTVSPost2010Prop41ColorRGB
 90
        0
102
RTVSPost2010PropOp41
 70
     1
102
RTVSPost2010Prop42
 90
       50
102
RTVSPost2010PropOp42
 70
     1
102
RTVSPost2010Prop43
 90
        3
102
RTVSPost2010PropOp43
 70
     1
102
RTVSPost2010Prop44ColorIndex
 90
        5
102
RTVSPost2010Prop44ColorRGB
 90
      255
102
RTVSPost2010PropOp44
 70
     1
102
RTVSPost2010Prop45
280
     0
102
RTVSPost2010PropOp45
 70
     1
102
RTVSPost2010Prop46
 90
       50
102
RTVSPost2010PropOp46
 70
     1
102
RTVSPost2010Prop47
 90
       50
102
RTVSPost2010PropOp47
 70
     1
102
RTVSPost2010Prop48
 90
       50
102
RTVSPost2010PropOp48
 70
     1
102
RTVSPost2010Prop49
280
     0
102
RTVSPost2010PropOp49
 70
     1
102
RTVSPost2010Prop50
 90
       50
102
RTVSPost2010PropOp50
 70
     1
102
RTVSPost2010Prop51ColorIndex
 90
      256
102
RTVSPost2010Prop51ColorRGB
 90
-16777216
102
RTVSPost2010PropOp51
 70
     0
102
RTVSPost2010Prop52
140
1.0
102
RTVSPost2010PropOp52
 70
     0
102
RTVSPost2010Prop53
 90
        2
102
RTVSPost2010PropOp53
 70
     1
102
RTVSPost2010Prop54
  1
strokes_ogs.tif
102
RTVSPost2010PropOp54
 70
     1
102
RTVSPost2010Prop55
280
     0
102
RTVSPost2010PropOp55
 70
     1
102
RTVSPost2010Prop56
140
1.0
102
RTVSPost2010PropOp56
 70
     1
102
RTVSPost2010Prop57
140
1.0
102
RTVSPost2010PropOp57
 70
     1
102
RTVSPropertyOp0
 70
     1
102
RTVSPropertyOp1
 70
     1
102
RTVSPropertyOp2
 70
     1
102
RTVSPropertyOp3
 70
     1
102
RTVSPropertyOp4
 70
     1
102
RTVSPropertyOp5
 70
     1
102
RTVSPropertyOp6
 70
     1
102
RTVSPropertyOp7
 70
     1
102
RTVSPropertyOp8
 70
     1
102
RTVSPropertyOp9
 70
     1
102
RTVSPropertyOp10
 70
     1
102
RTVSPropertyOp11
 70
     1
102
RTVSPropertyOp12
 70
     1
102
RTVSPropertyOp13
 70
     1
102
RTVSPropertyOp14
 70
     1
102
RTVSPropertyOp15
 70
     1
102
RTVSPropertyOp16
 70
     1
102
RTVSPropertyOp17
 70
     1
102
RTVSPropertyOp18
 70
     1
102
RTVSPropertyOp19
 70
     1
102
RTVSPropertyOp20
 70
     1
102
RTVSPropertyOp21
 70
     1
102
RTVSPropertyOp22
 70
     1
102
RTVSPropertyOp23
 70
     1
102
RTVSPropertyOp24
 70
     1
102
RTVSPropertyOp25
 70
     1
102
RTVSPropertyOp26
 70
     1
102
RTVSPropertyOp27
 70
     1
102
RTVSPropertyOp28
 70
     1
102
RTVSPropertyOp29
 70
     1
102
RTVSPropertyOp30
 70
     1
102
RTVSPropertyOp31
 70
     1
102
RTVSPropertyOp32
 70
     1
102
RTVSPropertyOp33
 70
     1
102
RTVSPropertyOp34
 70
     1
102
RTVSPropertyOp35
 70
     1
102
RTVSPropertyOp36
 70
     1
102
RTVSPropertyOp37
 70
     1
102
RTVSPropertyOp38
 70
     1
102
RTVSPropertyOp39
 70
     1
102
RTVSPropertyOp40
 70
     1
102
RTVSPropertyOp41
 70
     1
102
RTVSPropertyOp42
 70
     1
102
RTVSPropertyOp43
 70
     1
102
RTVSPropertyOp44
 70
     1
102
RTVSPropertyOp45
 70
     1
102
RTVSPropertyOp46
 70
     1
102
RTVSPropertyOp47
 70
     1
102
RTVSPropertyOp48
 70
     1
102
RTVSPropertyOp49
 70
     1
102
RTVSPropertyOp50
 70
     1
102
RTVSPropertyOp51
 70
     0
102
RTVSPropertyOp52
 70
     0
102
RTVSPropertyOp53
 70
     1
102
RTVSPropertyOp54
 70
     1
102
RTVSPropertyOp55
 70
     1
102
RTVSPropertyOp56
 70
     1
102
RTVSPropertyOp57
 70
     1
102
RTVSPropertyOp58
 70
     1
102
RTVSPropertyOp59
 70
     1
102
RTVSPropertyOp60
 70
     1
102
RTVSPropertyOp61
 70
     1
102
RTVSPropertyOp62
 70
     1
  0
XRECORD
  5
46F
102
{ACAD_REACTORS
330
46E
102
}
330
46E
100
AcDbXrecord
280
     1
102
RTVSPost2010Prop28
280
     0
102
RTVSPost2010PropOp28
 70
     1
102
RTVSPost2010Prop29
280
     1
102
RTVSPost2010PropOp29
 70
     1
102
RTVSPost2010Prop30
280
     1
102
RTVSPost2010PropOp30
 70
     1
102
RTVSPost2010Prop31
280
     0
102
RTVSPost2010PropOp31
 70
     1
102
RTVSPost2010Prop32
280
     0
102
RTVSPost2010PropOp32
 70
     1
102
RTVSPost2010Prop33
280
     0
102
RTVSPost2010PropOp33
 70
     1
102
RTVSPost2010Prop34
280
     0
102
RTVSPost2010PropOp34
 70
     1
102
RTVSPost2010Prop35
280
     0
102
RTVSPost2010PropOp35
 70
     1
102
RTVSPost2010Prop36
280
     0
102
RTVSPost2010PropOp36
 70
     1
102
RTVSPost2010Prop37
 90
       50
102
RTVSPost2010PropOp37
 70
     1
102
RTVSPost2010Prop38
140
0.0
102
RTVSPost2010PropOp38
 70
     1
102
RTVSPost2010Prop39
140
1.0
102
RTVSPost2010PropOp39
 70
     1
102
RTVSPost2010Prop40
 90
        0
102
RTVSPost2010PropOp40
 70
     1
102
RTVSPost2010Prop41ColorIndex
 90
       18
102
RTVSPost2010Prop41ColorRGB
 90
        0
102
RTVSPost2010PropOp41
 70
     1
102
RTVSPost2010Prop42
 90
       50
102
RTVSPost2010PropOp42
 70
     1
102
RTVSPost2010Prop43
 90
        3
102
RTVSPost2010PropOp43
 70
     1
102
RTVSPost2010Prop44ColorIndex
 90
        5
102
RTVSPost2010Prop44ColorRGB
 90
      255
102
RTVSPost2010PropOp44
 70
     1
102
RTVSPost2010Prop45
280
     0
102
RTVSPost2010PropOp45
 70
     1
102
RTVSPost2010Prop46
 90
       50
102
RTVSPost2010PropOp46
 70
     1
102
RTVSPost2010Prop47
 90
       50
102
RTVSPost2010PropOp47
 70
     1
102
RTVSPost2010Prop48
 90
       50
102
RTVSPost2010PropOp48
 70
     1
102
RTVSPost2010Prop49
280
     0
102
RTVSPost2010PropOp49
 70
     1
102
RTVSPost2010Prop50
 90
       50
102
RTVSPost2010PropOp50
 70
     1
102
RTVSPost2010Prop51ColorIndex
 90
      256
102
RTVSPost2010Prop51ColorRGB
 90
-16777216
102
RTVSPost2010PropOp51
 70
     0
102
RTVSPost2010Prop52
140
1.0
102
RTVSPost2010PropOp52
 70
     0
102
RTVSPost2010Prop53
 90
        2
102
RTVSPost2010PropOp53
 70
     1
102
RTVSPost2010Prop54
  1
strokes_ogs.tif
102
RTVSPost2010PropOp54
 70
     1
102
RTVSPost2010Prop55
280
     0
102
RTVSPost2010PropOp55
 70
     1
102
RTVSPost2010Prop56
140
1.0
102
RTVSPost2010PropOp56
 70
     1
102
RTVSPost2010Prop57
140
1.0
102
RTVSPost2010PropOp57
 70
     1
102
RTVSPropertyOp0
 70
     1
102
RTVSPropertyOp1
 70
     1
102
RTVSPropertyOp2
 70
     1
102
RTVSPropertyOp3
 70
     1
102
RTVSPropertyOp4
 70
     1
102
RTVSPropertyOp5
 70
     1
102
RTVSPropertyOp6
 70
     1
102
RTVSPropertyOp7
 70
     1
102
RTVSPropertyOp8
 70
     1
102
RTVSPropertyOp9
 70
     1
102
RTVSPropertyOp10
 70
     1
102
RTVSPropertyOp11
 70
     1
102
RTVSPropertyOp12
 70
     1
102
RTVSPropertyOp13
 70
     1
102
RTVSPropertyOp14
 70
     1
102
RTVSPropertyOp15
 70
     1
102
RTVSPropertyOp16
 70
     1
102
RTVSPropertyOp17
 70
     1
102
RTVSPropertyOp18
 70
     1
102
RTVSPropertyOp19
 70
     1
102
RTVSPropertyOp20
 70
     1
102
RTVSPropertyOp21
 70
     1
102
RTVSPropertyOp22
 70
     1
102
RTVSPropertyOp23
 70
     1
102
RTVSPropertyOp24
 70
     1
102
RTVSPropertyOp25
 70
     1
102
RTVSPropertyOp26
 70
     1
102
RTVSPropertyOp27
 70
     1
102
RTVSPropertyOp28
 70
     1
102
RTVSPropertyOp29
 70
     1
102
RTVSPropertyOp30
 70
     1
102
RTVSPropertyOp31
 70
     1
102
RTVSPropertyOp32
 70
     1
102
RTVSPropertyOp33
 70
     1
102
RTVSPropertyOp34
 70
     1
102
RTVSPropertyOp35
 70
     1
102
RTVSPropertyOp36
 70
     1
102
RTVSPropertyOp37
 70
     1
102
RTVSPropertyOp38
 70
     1
102
RTVSPropertyOp39
 70
     1
102
RTVSPropertyOp40
 70
     1
102
RTVSPropertyOp41
 70
     1
102
RTVSPropertyOp42
 70
     1
102
RTVSPropertyOp43
 70
     1
102
RTVSPropertyOp44
 70
     1
102
RTVSPropertyOp45
 70
     1
102
RTVSPropertyOp46
 70
     1
102
RTVSPropertyOp47
 70
     1
102
RTVSPropertyOp48
 70
     1
102
RTVSPropertyOp49
 70
     1
102
RTVSPropertyOp50
 70
     1
102
RTVSPropertyOp51
 70
     0
102
RTVSPropertyOp52
 70
     0
102
RTVSPropertyOp53
 70
     1
102
RTVSPropertyOp54
 70
     1
102
RTVSPropertyOp55
 70
     1
102
RTVSPropertyOp56
 70
     1
102
RTVSPropertyOp57
 70
     1
102
RTVSPropertyOp58
 70
     1
102
RTVSPropertyOp59
 70
     1
102
RTVSPropertyOp60
 70
     1
102
RTVSPropertyOp61
 70
     1
102
RTVSPropertyOp62
 70
     1
  0
ENDSEC
  0
EOF
